Guthrie Arlo - Alice Restaurant Chords & Tabs

 

Alice Restaurant Chords & Tabs

Guthrie Arlo Chords & Tabs

Version: 1 Type: Tab 1 rating
1 star 2 stars 3 stars 4 stars 5 stars
comments

Alice Restaurant Tab

   
#----------------------------------PLEASE NOTE---------------------------------#
#This file is the author's own work and represents their interpretation of the #
#song. You may only use this file for private study, scholarship, or research. #
#------------------------------------------------------------------------------##

From: mzraly@cs.umb.edu (Michael S. Zraly)



Alice's Restaurant
------------------
words & music by transcribed by
  Arlo Guthrie  Russ Shipton
w/alterations by
   Mike Zraly

[ This originally appeared in Shipton's book "Blues & Ragtime ]
[ Guitar" -- sorry, I don't know the publisher's name; I sold ]
[ the book a few years ago.      ]


This progression gets repeated throughout the song/monologue;
the only exception is the "impending doom" sound effect (I for-
get where in the song this occurs) produced by strumming the
following chords in sequence:

     Ebo7       F#o7       Ao7       Co7

 E |---2----------5---------8--------11--|
 B |---1----------4---------7--------10--|
 G |---2----------5---------8--------11--|
 D |---1----------4---------7--------10--|
 A |-------------------------------------|
 E |-------------------------------------|

and the ending strums, which are C C F F C G C chords in usual
positions.


           G     Am    Bm      C             Cm  C

 E |-------------------------|--0-----------------0-------|
 B |--------0-----1-----3----|---------1------4-----------|
 G |-------------------------|--------------------------0-|
 D |-------------------------|---------2-------------2----|
 A |--------------0-----2----|--3-------------3-----------|
 E |--------3----------------|----------------------------|
                               You    can    get    an -y


     A7                              D7             G

 E |-----------5-------3-----------|-----0----------------0--------|
 B |-----------------------5-------|--3---------------0------------|
 G |-------------------------------|--------------0----------------|
 D |--------------------------2----|----------4--------------0-----|
 A |---0-------0-------0-----------|--5----------------------------|
 E |-------------------------------|------------------3------------|
     thing    you    want       at   Al -i- ce's    Rest    -a-


     C        G     Am    Bm      C             Cm  C
[ Tab from: http://www.guitartabs.cc/tabs/g/guthrie_arlo/alice_restaurant_tab.html ]
 E |----------------------------|--0-----------------0-------|
 B |---1-------0-----1-----3----|---------1------4-----------|
 G |----------------------------|--------------------------0-|
 D |----------------------------|---------2-------------2----|
 A |---3-------------0-----2----|--3-------------3-----------|
 E |-----------3----------------|----------------------------|
     raunt               


     A7                              D7          D7/A

 E |-----------5-------3-----------|-------------------0----------|
 B |-----------------------5-------|--3-----3------3--------------|
 G |-------------------------------|-----------5------------------|
 D |--------------------------2----|--------4---------------4-----|
 A |---0-------0-------0-----------|--5---------------------------|
 E |-------------------------------|---------------5--------------|
 


     G       Am     Bbm      Bm      C                Cm C

 E |-------------------------------|---0------------------0---------|
 B |---0------1-------2-------3----|-----------1-------4------------|
 G |-------------------------------|------------------------------0-|
 D |-------------------------------|-----------2--------------2-----|
 A |----------0-------1-------2----|---3---------------3------------|
 E |---3---------------------------|--------------------------------|
     


                                     F

 E |---0-------0-------0---3-------|----------------------------------|
 B |-------------------------------|-----------0-------1---3----------|
 G |--------0------0---------------|---2---------------------------2--|
 D |-----------2--------------2----|-----------3---------------3------|
 A |---3---------------3-----------|----------------------------------|
 E |-------------------------------|---1---------------1--------------|
     


     D7                                C             Cm  C

 E |---------------------------------|--0-----------------0-------|
 B |---1----3-----------1----3-------|---------1------4-----------|
 G |----------------2--------------2-|--------------------------0-|
 D |------------0---------------0----|---------2-------------2----|
 A |---------------------------------|--3-------------3-----------|
 E |---2----------------2------------|----------------------------|



     A7                              D7             D7/A

 E |-----------5-------3-----------|----------------------0--------|
 B |-----------------------5-------|--3-------3-------3------------|
 G |-------------------------------|--------------5----------------|
 D |--------------------------2----|----------4--------------4-----|
 A |---0-------0-------0-----------|--5----------------------------|
 E |-------------------------------|------------------5------------|
     


     G        G     Am    Bm

 E |----------------------------|
 B |---0-------0-----1-----3----|
 G |----------------------------|
 D |----------------------------|
 A |-----------------0-----2----|
 E |---3-------3----------------|
     
Comments