Guster - This Is Db10 Chords & Tabs

 

This Is Db10 Chords & Tabs

Guster Chords & Tabs

Version: 1 Type: Tab 0 ratings
1 star 2 stars 3 stars 4 stars 5 stars
comments

This Is Db10 Tab

   
Guster
This is DB10 

Opening  (Repeat 2X's)
e----------------------------------------------------------
a----------------------------------------------------------
G----------------------------------------------------------
D-14-xxx-14-xxx-17-16-14-xxx-14-xxx-(12)Hold for-----------
A-14-xxx-14-xxx-17-16-14-xxx-14-xxx-(12)1/2 beat-----------
E-12-xxx-12-xxx-15-14-12-xxx-12-xxx-(10)-------------------

(Repeat 2X's)
e----------------------------------------------------------
a----------------------------------------------------------
G----------------------------------------------------------
D-1414141414141414-12-xxx-12-xxx-17-16---------------------
A-1414141414141414-12-xxx-12-xxx-17-16---------------------
E-1212121212121212-10-xxx-10-xxx-15-16---------------------
[ Tab from: http://www.guitartabs.cc/tabs/g/guster/this_is_db10_tab.html ]
e----------------------------------------------------------
a----------------------------------------------------------
G----------------------------------------------------------
D-1414141414141414-1212121212121212-1010101010101010-------
A-1414141414141414-1212121212121212-1010101010101010-------
E-1212121212121212-1010101010101010- 8 8 8 8 8 8 8 8-------

e----------------------------------------------------------
a----------------------------------------------------------
G----------------------------------------------------------
D-8888-10101010-14141414-12121212-1414141414141414---------
A-8888-10101010-14141414-12121212-1414141414141414---------
E-6666- 8 8 8 8-12121212-10101010-1212121212121212---------

e----------------------------------------------------------
a----------------------------------------------------------
G----------------------------------------------------------
D-1212121212121212-1010101010101010-8-xxx-8-xxx-8-10-xxx-10
A-1212121212121212-1010101010101010-8-xxx-8-xxx-8-10-xxx-10
E-1010101010101010- 8 8 8 8 8 8 8 8-8-xxx-6-xxx-6- 8-xxx- 8

e----------------------------------------------------------
a----------------------------------------------------------
G----------------------------------------------------------
D-xxx-10-14-xxx-14-xxx-14-12-xxx-12-xxx-12-(14)Hold until--
A-xxx-10-14-xxx-14-xxx-14-10-xxx-12-xxx-12-(14)whenever----
E-xxx- 8-14-xxx-12-xxx-12-10-xxx-10-xxx-10-(12)------------
Comments