Guster - Demon Chords & Tabs

 

Demon Chords & Tabs

Guster Chords & Tabs

Version: 3 Type: Tab 0 ratings
1 star 2 stars 3 stars 4 stars 5 stars
comments

Demon Tab

100% correct verse

capo 3rd fret
standard

intro
3h5= SLIDE 3-5

 beat: one.. two.. three.four.five.six

this is how i play intro.
[ Tab from: http://www.guitartabs.cc/tabs/g/guster/demon_tab_ver_3.html ]
e 0---0-0-0-0-0-0-0-0-0-0-0-0----0-0-0-0-0--------------------| repeat
B -3h5-5-5-5-5-5--3-3-1-1-1-1----0-0-0-0-0-0-0-0-0-0-0-0-0----|
G ----------------------------------------------2-2-2-2h4-4-4-|
D ------------------------------------------------------------|
A ------------------------------------------------------------|
E ------------------------------------------------------------|

beat: one..two.. three.four.five.six.
verse:
   e--3----3---3-3-3-3---3----3---3-|
   B--3----3---3-3-3-3---3----3---3-|
   G--0----0---0-0-0-0---0----0-----|(2)
   D--0----0---0-0-0-0---0----0---0-|
   A--2----2---3-3-3-3---2----2---0-|
   E--0----0---0-0-0-0---3----3---2-|
Comments