Guster - Demon Chords & Tabs

 

Demon Chords & Tabs

Guster Chords & Tabs

Version: 2 Type: Tab 0 ratings
1 star 2 stars 3 stars 4 stars 5 stars
comments

Demon Tab

   
                      "Demon" by Guster

Tuning: Standard

Intro
e|---0-0--0--0--0--0-0-0-0-0-0--0-0-0-0---|
b|---8/10-10-10-10-8-8-6-6-5-5--3-3-5-5---|
g|----------------------------------------|
d|----------------------------------------|
a|----------------------------------------|
E|----------------------------------------|

Verse - Listen for Strumming Patterns
     Am    A?   Am    C     B?
e|---0-----0-0--0-0---0-----0-----|
b|---1-----1-1--1-1---1-----1-----|
g|---2-----2-2--2-2---0-----0-----|
d|---2-----3-3--2-2---2-----0-----|
a|---0-----0-0--0-0---3-----2-----|
E|---0-----0-0--0-0---0-----0-----|

PreChorus - Same as Verse

Chorus	- Same As Verse
[ Tab from: http://www.guitartabs.cc/tabs/g/guster/demon_tab_ver_2.html ]
Notes (1) After 1st Chorus (Played Over Verse Chords)
e|-----------------------------------------|
b|--------8-6-5--------------8-6-5-6-5~~---|
g|---5h7--------5-7~~---5h7----------------|
d|-----------------------------------------|
a|-----------------------------------------|
E|-----------------------------------------|

Notes (2) Played Along w/ Final Chorus
e|---0--0--0--0--0--0--0--0--0--0----|
b|---13-13-13-12-12-13-13-13-12-12---|
g|-----------------------------------|
d|-----------------------------------|
a|-----------------------------------|
E|-----------------------------------|

Intro
Verse
PreChorus
Chorus
Verse w/ Notes (1)
Verse
PreChorus
Chorus
Intro
Chorus w/ Notes (2)
Intro w/ Verse

This is an excellent song by a lesser known band.  This song just reminds us
that some bongos, an organ, and a few excellent singers can go a long way.
I'm gaurenteeing a 99.98% correctness, or you can track me down & beat my ass.
Send comments to Virii_116@Hotmail.com.  Have any corrections?  Good - then tab
the song & put it on the net.
[Poor Andy is Pimp]                               -Sean Rippen-
Comments