Guster - Amsterdam Chords & Tabs

 

Amsterdam Chords & Tabs

Guster Chords & Tabs

Version: 1 Type: Tab 0 ratings
1 star 2 stars 3 stars 4 stars 5 stars
comments

Amsterdam Tab

   
-------------------------------------------------------------------------------
            Amsterdam (based on the Guster on Ice version) - Guster
-------------------------------------------------------------------------------
Tabbed by: Joe Seffy
Email: Cougar8me@aol.com

Tuning: Standard
Simple yet awesome and fun to play
GUSTER ROCKS MY SOCKS OFF!

Guitar 1 - Intro Riff, Guitar 2 plays a G to the same rythm                x3
e|---------------------------------------------------------------------------|
B|---------------------------------------------------------------------------|
G|---------------------------------------------------------------------------|
D|--------5--5-5--7--7-7--------5--5-5--------7--7-7-------------------------|
A|-5-5-5--3--3-3--5--5-5-5--5-5-3--3-3-5--5-5-5--5-5-5--5-5------------------|
E|-3-3-3-----------------3--3-3--------3--3-3--------3--3-3------------------|

Guitar 1
e|----------------------------------------------------------------10---------|
B|---12-10--12-10--12--12-10--12-10-12------10-12----10-12----10------12-10--|
G|-12---------------------------------12--12-------12-------12--12--12-------|
D|---------------------------------------------------------------------------|
A|---------------------------------------------------------------------------|
E|---------------------------------------------------------------------------|

e|----------------------------------------------------------------10~--------|
B|---12-10--12-10--12--12-10--12-10-12------10-12----10-12----10-------------|
G|-12---------------------------------12--12-------12-------12--12-----------|
D|---------------------------------------------------------------------------|
A|---------------------------------------------------------------------------|
E|---------------------------------------------------------------------------|
  "I'm goin' through your things..."
Guitar 2                                                                   x2
e|---------------------------------------------------------------------------|
B|---------------------------------------------------------------------------|
G|---------------------------------------------------------------------------|
D|--10-10-10-10-10-10-10-10-\-7--7--7--7--7--7--7--7-------------------------|
A|--10-10-10-10-10-10-10-10-\-7--7--7--7--7--7--7--7-------------------------|
E|--8--8--8--8--8--8--8--8--\-5--5--5--5--5--5--5--5-------------------------|
[ Tab from: http://www.guitartabs.cc/tabs/g/guster/amsterdam_tab.html ]
Guitar 1                                                                   x2
e|---------------------------------------------------------------------------|
B|---------------------------------------------------------------------------|
G|------------------------------2-2------------------------------------------|
D|----------------------4-4---0-0-0------------------------------------------|
A|---2-2-0h2---2-2------2-2-0-------3p2--------------------------------------|
E|-3-3-3-----0-0-0-3/5-------------------------------------------------------|
  "I'm gonna write you a letter..."
Guitar 2                                                                   x2
e|---------------------------------------------------------------------------|
B|-8-8-8-8-8-8-8-8-7-7-7-7-7-7-7-7-------------------------------------------|
G|-7-7-7-7-7-7-7-7-7-7-7-7-7-7-7-7-------------------------------------------|
D|-5-5-5-5-5-5-5-5-4-4-4-4-4-4-4-4-------------------------------------------|
A|---------------------------------------------------------------------------|
E|---------------------------------------------------------------------------|

Guitar 1                          x3 then
e|-------7------7---8---8---8---8--------------7------7------8~--------------|
B|---10-----10-----------------------------10-----10-----10------------------|
G|--9--9---9--9---9---9---9---9-----------9--9---9--9---9--9-----------------|
D|---------------------------------------------------------------------------|
A|---------------------------------------------------------------------------|
E|---------------------------------------------------------------------------|
  "Way up on your cloud..."
Guitar 2 (same pattern as before)
e|---------------------------------------------------------------------------|
B|---------------------------------------------------------------------------|
G|---------------------------------------------------------------------------|
D|-7-----------/------------10-----------------------------------------------|
A|-7-----------/------------10-----------------------------------------------|
E|-5-----------/------------8------------------------------------------------|

Guitar 1                                                                   x2
e|---------------------------------------------------------------------------|
B|--12--(x16)------8--(x16)----7---(x8)----b8---(x4)--r7--(x4)---5--(x16)--/-|
G|---------------------------------------------------------------------------|
D|---------------------------------------------------------------------------|
A|---------------------------------------------------------------------------|
E|---------------------------------------------------------------------------|
      |     muted     |
e|---------7-------7~~-------------------------------------------------------------|
B|-----8-------8-------------------------------------------------------------------|
G|---------------------------------------------------------------------------------|
D|---------------------------------------------------------------------------------|
A|---------------------------------------------------------------------------------|
E|---------------------------------------------------------------------------------|
The fun part
Guitar 2
e|--10-------------7-----------5-------5--5-----------3----------------------|
B|--12-------------8-----------7-------8--7-----------5----------------------|
G|--12-------------9-----------7-------7--7-----------5----------------------|
D|--12-------------9-----------7-------7--7-----------5----------------------|
A|--10-------------7-----------5-------5--5-----------3----------------------|
E|---------------------------------------------------------------------------|

The rest is pretty much the sam
Have fun
| /  slide up
| \  slide down
| h  hammer-on
| p  pull-off
| ~  vibrato
| +  harmonic
| x  Mute note
| b  Bend up
| r  Release
===============================================================================
Comments