Gus - Dont Fear The Reaper Chords & Tabs

 

Dont Fear The Reaper Chords & Tabs

Gus Chords & Tabs

Version: 1 Type: Tab 0 ratings
1 star 2 stars 3 stars 4 stars 5 stars
comments

Dont Fear The Reaper Tab

   
#----------------------------------PLEASE NOTE---------------------------------#
#This file is the author's own work and represents their interpretation of the #
#song. You may only use this file for private study, scholarship, or research. #
#------------------------------------------------------------------------------##

Interpret: Gus
Song     : Don't fear the reaper
Album    : Scream I Soundtrack
Original : The Blue Oyster Cult
Tab      : Onkel Tony

 #-------------------------------Please-Note-------------------------------------#                                                                               
 # This file is the author's own work and represents their interpretation of the #
 # song. You may only use this file for privat study, scholarship, or research.  #
 #-------------------------------------------------------------------------------# 
                                                                              
Gus - Don't fear the reaper

Tune Eb Ab Db Gb Cb Eb

Intro: 4x
           
eb------------------------------------------------------------------------I
Cb----------5-------------------------------------------------------------I
Gb-------------5-----------0--------------0----------------0 -------------I
Db------7---------------0-----0--------0-----0---------0------------------I
Ab------------------------------------------------------------------------I
Eb---5--------------3--------------1---------------3----------------------I
 \_______________________________________________________________________/
                                part 1

Verse 1......

eb------------------------------------------------------------------------------------I
Cb------------------------------------------5-----------------------------------------I
Gb-----------0--------------0------------------5-----------0----------0----------0----I
Db--------0-----0--------0-----0--------7---------------0-----0----0-----0----0-----0-I
Ab------------------------------------------------------------------------------------I
Eb----1--------------3--------------5----------------3-----------1----------0---------I
 \___________________________________________________________________________________/#
                                part 2
[ Tab from: http://www.guitartabs.cc/tabs/g/gus/dont_fear_the_reaper_tab.html ]
But seasons don't fear the reaper, nor do the wind the sun and the rain
\________________________________________________________________/\___/
                         part 2                                    part 1

Chorus:
   .....

solo palyed by violonchello - so you can play it with a guitar (clean but with light effect)

solo: Guitar 2 it sounds verry well

eb--------7---3---------------------------0----7----3------------------------------------I
Cb----5-----------------10---3---5---------------------------10---3--5--3--1--0----------I
Gb---------------5--2----------------------------------5--2-----------------------5------I
Db---------------------------------------------------------------------------------------I
Ab---------------------------------------------------------------------------------------I
Eb--------------------------------------------------------------------------------3-1-3--I
 \________________________________/      \______________________________________________/
            solo 1                                          solo 2


Guitar 3: in solo and at the little solos in the end

eb--------------------------------------I
Cb-----0---0------0------0------0-------I
Gb---5---5----5-5----5-5----5-5---------I
Db--------------------------------------I  play verry soft and tender
Ab--------------------------------------I
Eb---5--------3------1------3-----------I


Vers 2 like the 1st:

Chorus 2+solo:

solo 1 4x solo 3 1x

eb--0--7--3----------------------------------------I
Cb--------------10--3-5-8--10--12--13--------------I
Gb----------5-2------------------------------------I
Db-------------------------------------------------I
Ab---------------------------------10--------------I
Eb-------------------------------------1---3-------I

 \________________________________________________/
                     part 3

Chorus 2:

la la la la la     repeat a fiew times

Little solopart in the end:

eb---------------------------------------------------------5--I
Cb---1ß--12/13/12--10-------------------------------------5---I
Gb---------------------12---14-----14--7-5-5-5-5-5-5-----5----I
Db-----------------------------10-----------------------7-----I
Ab-----------------------------------------------------7------I
Eb---------------------------------------3-1-5-3-1-3--5-------I

Thet's it. Verry beautieful !

Questions or corrections at Onkel_Tony@gmx.net or http:\\www.tonyinline.de.vu
Comments