Guns N Roses - Youre Crazy Chords & Tabs

 

Youre Crazy Chords & Tabs

Guns N Roses Chords & Tabs

Version: 2 Type: Tab 0 ratings
1 star 2 stars 3 stars 4 stars 5 stars
comments

Youre Crazy Tab

YOUR CRAZY
GUNS N' ROSES
GN'R LIES
1988

THIS IS THE VERSION HEARD ON THE "LIES"CD
HOWVER,IF YOU WANT TO PLAY IT THE WAY
ON APPETITE FR DESTRUCTION JUST SPEED
IT UP!!!!!!
[ Tab from: http://www.guitartabs.cc/tabs/g/guns_n_roses/youre_crazy_tab_ver_2.html ]
------------------------2---2----
----2-----2------2-----3---3----
----2-----2------2-----2---2----
----2-----2------2-----0---0----
----0-----0------0---------------
-3-----3------3------------------


-----------------------0----------
----2-----2------2----0----------
----2-----2------2----1----------
----2-----2------2----2----------
----0-----0------0----2----------
-3-----3------3-------0----------


JUST BASICALY REAPEAT THIS THROUGH THE WHOLE
SONG AND HAVE FUN!!!!!!!


tabbed by marshall
Comments