Guns N Roses - You Could Be Mine Chords & Tabs

 

You Could Be Mine Chords & Tabs

Guns N Roses Chords & Tabs

Version: 3 Type: Bass Tab 0 ratings
1 star 2 stars 3 stars 4 stars 5 stars
comments

You Could Be Mine Bass Tab

You could be mine bass tab

Intro
    1 + 2 + 3 + 4 +   1 + 2 + 3 + 4 +   
Gb|-----------------|-----------------|
Db|-----------------|-----------------|
Ab|-----------------|-----------------|
Eb|------Drums------|------Drums------| 

    1 + 2 + 3 + 4 +   1 + 2 + 3 + 4 +   1 + 2 + 3 + 4 +   1 + 2 + 3 + 4 + 
Gb|-----------------|-----------------|-----------------|-----------------|
Db|-----------------|-----------------|-----------------|-----2-4-2-------|
Ab|-----------------|-----------------|-----------------|---4-------4-2---|
Eb|------Drums------|------Drums------|------Drums------|---------------5-|

    1 + 2 + 3 + 4 +   1 + 2 + 3 + 4 +   1 + 2 + 3 + 4 +   1 + 2 + 3 + 4 + 
Gb|-----------------|-----------------|-----------------|-----------------|
Db|o----------------|-----------------|-----------------|----------------o| 
Ab|o----------------|-----------------|-----------------|----------------o|
Eb|-2-2---0-2-2---0-|-2-2---0-2-2---0-|-2-2--0--2-2---0-|-2-2-0---2-2---0-|

Main Riff 1                                                              x4
    1 + 2 + 3 + 4 +   1 + 2 + 3 + 4 +   1 + 2 + 3 + 4 +   1 + 2 + 3 + 4 + 
Gb|-----------------|-----------------|-----------------|-----------------|
Db|o----------------|-----------------|-----------------|----------------o|
Ab|o----------------|-----------------|-----------------|----------------o|
Eb|-2-2---0-2-2---0-|-2-2---0-2-2---0-|-0-0---0-0-0---0-|-0-0---0-0-0---0-|

Build
    1 + 2 + 3 + 4 +   1 + 2 + 3 + 4 +   1 + 2 + 3 + 4 +   1 + 2 + 3 + 4 + 
Gb|-----------------|-----------------|-----------------|-----------------|
Db|-----------------|-----------------|-----------------|-----------------|
Ab|-----------------|-7-7-7-7-7-7-7-7-|-7-7-7-------7-7-|-7-0-2-0-2-0-----|
Eb|-0-0-0-0-0-0-0-0-|-----------------|-------7-7-7-----|-------------2-0-|

Main Riff 2
    1 + 2 + 3 + 4 +   1 + 2 + 3 + 4 +   1 + 2 + 3 + 4 +   1 + 2 + 3 + 4 + 
Gb|-----------------|-----------------|-----------------|-----------------|
Db|-----------------|-----------------|-----------------|-----------------|
Ab|-----------------|---0-2-0-2-0-----|-----------------|---0-2-0-2-0-----|
Eb|-2---2---0-2---2-|(2)----------2-0-|-2---2---0-2---2-|(2)----------2-0-|

    1 + 2 + 3 + 4 +   1 + 2 + 3 + 4 +   1 + 2 + 3 + 4 +   1 + 2 + 3 + 4 + 
Gb|-----------------|-----------------|-----------------|-----------------|
Db|-----------4-5-6-|(6)--------------|-----------------|-----------------|
Ab|-----------------|---0-2-0-2-0-----|-----------------|---0-2-0-2-0-----|
Eb|-0--0----0-------|-------------2-0-|-2---2---0-2---2-|(2)----------2-0-|

Verse
    1 + 2 + 3 + 4 +   1 + 2 + 3 + 4 +   1 + 2 + 3 + 4 +   1 + 2 + 3 + 4 + 
Gb|-----------------|-----------------|-----------------|-----------------|
Db|-----------------|-----------------|-----------------|-----4-------3---|
Ab|-----------------|-----------------|-----------------|-----------------|
Eb|-2-2---0-2-2---0-|-2-2---0-2-2---0-|-2-2---0-2-2---0-|-2-2---2-0-1---1-|

    1 + 2 + 3 + 4 +   1 + 2 + 3 + 4 +   1 + 2 + 3 + 4 +   1 + 2 + 3 + 4 + 
Gb|-----------------|-----------------|-----------------|-----------------|
Db|-----------------|-----------------|-----------------|-----------------|
Ab|-----------------|-----------------|-----------------|---0-2-0-2-0-----|
Eb|-0-0---0-0-0---0-|-0-0---0-0-0---0-|-2---2---0-2---2-|(2)----------2-0-|

    1 + 2 + 3 + 4 +   1 + 2 + 3 + 4 +   1 + 2 + 3 + 4 +   1 + 2 + 3 + 4 + 
Gb|-----------------|-----------------|-----------------|-----------------|
Db|-----------------|-----------------|-----------------|-----------------|
Ab|-----------------|-----------------|-----------------|-----------------|
Eb|-2-2---0-2-2---0-|-2-2---0-2-2---0-|-2-2---0-2-2---0-|-2-2---0-2-2---0-|

    1 + 2 + 3 + 4 +   1 + 2 + 3 + 4 +   1 + 2 + 3 + 4 +   1 + 2 + 3 + 4 + 
Gb|-----------------|-----------------|-----------------|-----------------|
Db|-----------------|-----------------|-----------------|-----------------|
Ab|-----------------|-----------------|-----------------|---0-2-0-2-0-----|
Eb|-0-0---0-0-0---0-|-0-0---0-0-0---0-|-2---2---0-2---2-|(2)----------2-0-|

Chorus
    1 + 2 + 3 + 4 +   1 + 2 + 3 + 4 +   1 + 2 + 3 + 4 +   1 + 2 + 3 + 4 + 
Gb|-----------------|-----------------|-----------------|-----------------|
Db|-----------------|-----------------|-----------------|-----------------|
Ab|-0-0-0-0-0-0-0-0-|-2-2-2-2-2-2-2-2-|-----------------|-----------------|
Eb|-----------------|-----------------|-2-2-2-2-2-2-2-2-|-2-2-2-2-2-2-2-2-|

    1 + 2 + 3 + 4 +   1 + 2 + 3 + 4 +   1 + 2 + 3 + 4 +   1 + 2 + 3 + 4 + 
Gb|-----------------|-----------------|-----------------|-----------------|
Db|-----------------|-----------------|---------------23|-4---4-4---2-----|
Ab|-0-0-0-0-0-0-0-0-|-2-2-2-2-2-2-2-2-|-----------------|-------------4-2-|
Eb|-----------------|-----------------|-2-2-2-2-2-2-2---|-----------------|
[ Tab from: http://www.guitartabs.cc/tabs/g/guns_n_roses/you_could_be_mine_btab_ver_3.html ]
    1 + 2 + 3 + 4 +   1 + 2 + 3 + 4 +   1 + 2 + 3 + 4 +   1 + 2 + 3 + 4 + 
Gb|-----------------|-----------------|-----------------|-----------------|
Db|-----------------|-----------------|-----------------|-----------------|
Ab|-0-0-0-0-0-0-0-0-|-2-2-2-2-2-2-2-2-|-----------------|-----------------|
Eb|-----------------|-----------------|-2-2-2-2-2-2-2-2-|-2-2-2-2-2-2-2-2-|
                     1st Time                            
    1 + 2 + 3 + 4 +   1 + 2 + 3 + 4 +   1 + 2 + 3 + 4 +   1 + 2 + 3 + 4 + 
Gb|-----------------|-----------------|-----------------|-----------------|
Db|-----------------|---------------23|-4-2-------------|-----------------|
Ab|-0-0-0-0-0-0-0-0-|-2-2-2-2-2-2-2---|-----4-3-2-------|---0-2-0-2-0-----|
Eb|-----------------|-----------------|-----------5-2-0-|-2-----------2-0-|
   2nd Time                                
    1 + 2 + 3 + 4 +   1 + 2 + 3 + 4 +   1 + 2 + 3 + 4 +  
Gb|-----------------|-----------------|-----------------|
Db|-----------------|-----------------|-----------------|
Ab|-2-2-2-2-2-2-2-2-|-4-4-4-4-4-4-4-4-|-4---------------|
Eb|-----------------|-----------------|---------------0-|
   3rd Time                                            x3  
    1 + 2 + 3 + 4 +   1 + 2 + 3 + 4 +   1 + 2 + 3 + 4 + 
Gb|-----------------|-----------------|-----------------|  
Db|-----------------|o----------------|----------------o| 
Ab|-2-2-2-2-2-2-2-2-|o0-0-0-0-0-0-0-0-|-2-2-2-2-2-2-2-2o|  
Eb|-----------------|-----------------|-----------------| 

Middle
    1 + 2 + 3 + 4 +   1 + 2 + 3 + 4 +   1 + 2 + 3 + 4 +   1 + 2 + 3 + 4 + 
Gb|-----------------|-----------------|-----------------|-----------------|
Db|o----------------|-----------------|-----------------|----------------o|
Ab|o----------------|-----------------|-0---0---0-5---5-|-0---0-0-0-0-0-0o|
Eb|-3-3-3-3-3-3-3-3-|-2-2-2-2-3-3-3-3-|-----------------|-----------------|

    1 + 2 + 3 + 4 +   1 + 2 + 3 + 4 +   1 + 2 + 3 + 4 +   1 + 2 + 3 + 4 + 
Gb|-----------------|-----------------|-----------------|-----------------|
Db|-----------------|-----------------|-----------------|-----------------|
Ab|-----------------|-----------------|-2-2-2-2-2-2-2-2-|-0-0-0-0-0-0-0-0-|
Eb|-3-3-3-3-3-3-3-3-|-2-2-2-2-3-3-3-3-|-----------------|-----------------|

    1 + 2 + 3 + 4 +   1 + 2 + 3 + 4 +   
Gb|-----------------|-----------------|
Db|---------5-------|---------0-0-0---|
Ab|-----5-----------|---------------0-|
Eb|-3-----------5---|-2-2-2-2---------|

Solo
    1 + 2 + 3 + 4 +   1 + 2 + 3 + 4 +   1 + 2 + 3 + 4 +   1 + 2 + 3 + 4 + 
Gb|-----------------|-----------------|-----------------|-----------------|
Db|-----------------|-----------------|-----------------|-----------------|
Ab|-2-2---0-2-2---0-|-2-2---0-2-2-5---|-2-2---0-2-2---0-|-2-2---0-2-2-5---|
Eb|-----------------|-----------------|-----------------|-----------------|

    1 + 2 + 3 + 4 +   1 + 2 + 3 + 4 +   1 + 2 + 3 + 4 +   1 + 2 + 3 + 4 + 
Gb|-----------------|-----------------|-----------------|-----------------|
Db|-----------------|-----------------|-----------------|-----------------|
Ab|-0-0---0-0-0---0-|-0-0---0-0-0-5---|-0-0---0-0-0---0-|-0-0---0-0-0-5---|
Eb|-----------------|-----------------|-----------------|-----------------|

    1 + 2 + 3 + 4 +   1 + 2 + 3 + 4 +   1 + 2 + 3 + 4 +   1 + 2 + 3 + 4 + 
Gb|-----------------|-----------------|-----------------|-----------------|
Db|-----------------|-----------------|-----------------|-----------------|
Ab|-2-2---0-2-2---0-|-2-2---0-2-2-5---|-2-2---0-2-2---0-|-2-2---0-2-2-5---|
Eb|-----------------|-----------------|-----------------|-----------------|

    1 + 2 + 3 + 4 +   1 + 2 + 3 + 4 +   1 + 2 + 3 + 4 +   1 + 2 + 3 + 4 + 
Gb|-----------------|-----------------|-----------------|-----------------|
Db|-----------------|---2-4-2---------|-----------------|-----------------|
Ab|-0-0---0-0-0---0-|-4-------4-2---0-|-0-0---0-0-0---0-|-0-0---0-0-0-5---|
Eb|-----------------|-------------5---|-----------------|-----------------|

Bridge                                                                   x3
    1 + 2 + 3 + 4 +   1 + 2 + 3 + 4 +   1 + 2 + 3 + 4 +   1 + 2 + 3 + 4 + 
Gb|-----------------|-----------------|-----------------|-----------------|
Db|o----------------|-----------------|-----------------|----------------o| 
Ab|o2-2-2-2-2-2-2-2-|-4-4-4-4-4-4-4-4-|-5-5-5-5-5-5-5-5-|-5-5-5-5-5---4--o|
Eb|-----------------|-----------------|-----------------|-----------------|

    1 + 2 + 3 + 4 +   1 + 2 + 3 + 4 +   1 + 2 + 3 + 4 +   1 + 2 + 3 + 4 + 
Gb|-----------------|-----------------|-----------------|-----------------|
Db|-----------------|-----------------|-----------------|-----------------|
Ab|-2-2-2-2-2-2-2-2-|-4-4-4-4-4-4-4-4-|-5-5-5-5-/-171717|-171717171717--\-|
Eb|-----------------|-----------------|-----------------|-----------------|

Outro                                                                    x4
    1 + 2 + 3 + 4 +   1 + 2 + 3 + 4 +   1 + 2 + 3 + 4 +   1 + 2 + 3 + 4 + 
Gb|-----------------|-----------------|-----------------|-----------------|
Db|o----------------|-----------------|-----------------|----------------o| 
Ab|o----------------|---0-2-0-2-0-----|-----------------|---0-2-0-2-0----o| 
Eb|-2---2---0-2---2-|(2)----------2-0-|-2---2---0-2---2-|(2)----------2-0-|

    1 + 2 + 3 + 4 +   1 + 2 + 3 + 4 +   1 + 2 + 3 + 4 +   1 + 2 + 3 + 4 + 
Gb|-----------------|-----------------|-----------------|-----------------|
Db|-----------------|-----------------|-----------------|-----------------|
Ab|-----------------|-----------------|-----------------|-----------------|
Eb|-2---------------|------rest-------|------rest-------|-------rest------|

Order

Intro
Main Riff 1
Build
Main Riff 2
Verse
Chorus w/first ending
Main Riff 2
Verse
Chorus w/second ending
Main Riff 1
Middle
Solo
Bridge
Chorus w/third ending
Outro
Comments