Guns N Roses - Think About You Chords & Tabs

 

Think About You Chords & Tabs

Guns N Roses Chords & Tabs

Version: 2 Type: Tab 0 ratings
1 star 2 stars 3 stars 4 stars 5 stars
comments

Think About You Tab

Guns n roses - Think about you

|------7--7------------7---5---5-----------3--3----------------6b-----|
|------7--7------------7---5---5-----------3--3----------------5b-----|
|--9----------9--7--8-------------7--5--6---------5b--3--5--3---------|
|--9------------------------------------------------------------------|
|--7------------------------------------------------------------------|
|---------------------------------------------------------------------|

|--3-----------------------------3--------3-------3-------------------|
|--3---5b--3--5--3------10b------3--------3-------3-------------------|
|-------------------5----------------5b-------5b----------------------|
|---------------------------------------------------------------------|
|---------------------------------------------------------------------|
|---------------------------------------------------------------------|

|---------------------------------------------------------------------|
|---------------------------------------------------------------------|
|-------4-----------4--------4--4------------2---------2--2-----------|
|--7----4----6------4-----6--4--4--6-----6---2------4--2--2--4--------|
|--7----2----2--2---2--2--2--2--2--2--2--2---0---0--0--0--0--0--0-----|
|--5------------------------------------------------------------------|

|---------------------------------------------------------------------|
|---------------------------------------------------------------------|
|--2-----3^^4------------4-----------4---4-----------4-----------2----|
|--2-----3^^4----6-------4-------6---4---4---6-------4-------6---2----|
|--0--0--1^^2----2---2---2---2---2---2---2---2---2---2---2---2---0----|
|---------------------------------------------------------------------|

|---------------------------------------------------------------------|
|---------------------------------------------------------------------|
|---------2--------2----5--4--2-----------------------------------2---|
|--4------2-----4--2----5--4--2--5--3--2--0--5-----5--5--5--5--5--2---|
|--0---0--0--0--0--0-------------5--3--2--0--5-----5--5--5--5--5--0---|
|--------------------------------------------3--3--3--3--3--3--3------|

|---------------------------------------------------------------------|
|---------------------------------------------------------------------|
|-2--2--2--2--2--------------------------------------------2--2--2--2-|
|-2--2--2--2--2-----------------------------5--5--5--5--5--2--2--2--2-|
|-0--0--0--0--0--3--2--0--3--2--0-----------5--5--5--5--5--0--0--0--0-|
|----------------------------------2--3--3--3--3--3--3--3-------------|

|-7--7------7--7-----7--5------5--5------5--15------------------------|
|-7--7------7--7-----7--5------5--5------5-----15---------------------|
|-------9b--------9b-------7b--------7b-----------14b--12---12--------|
|---------------------------------------------------------14----------|
|--------------------------------------------------------------12-14--|
|---------------------------------------------------------------------|






|-------7----7---7----10---10----10----10---3-----3-----3-------------|
|-------7----7---7----10---10----10----10---3-----3-----3-------------|
|-12/10---9b---9b--12b---12b--12b---12b--------5b----5b------9b-------|
|--------------------------------------------------------------7------|
|----------------------------------------------------------------9----|
|-----------------------------------------------------------------8--7|


|---0-----0-------0-----0--------0-----0-----0-----0-----0-----0------|
|-----3-----3-------3-----3--------3-----3-----3-----3-----3-----3----|
|-4-----4-----4-2-----2-----2-0------2-----4-----2-----4-----4-----4-2|
|---------------------------------------------------------------------|
|---------------------------------------------------------------------|
|---------------------------------------------------------------------|

|-0-----0-------0-----0-----0-----0-----0-----0-------0-----0---------|
|---3-----3-------3-----3-----3-----3-----3-----3-------3-----3-------|
|-----2-----2-0-----2-----4-----2-----4-----4-----4-2-----2-----2-0---|
|---------------------------------------------------------------------|
|---------------------------------------------------------------------|
|---------------------------------------------------------------------|

|-0-----0-----0-----0-----0---0---------------------------------------|
|---3-----3-----3-----3-2---2-----------------------------------------|
|-----2-----2-----4---------------------------------------------------|
|---------------------------------------------------------------------|
|-------------------------------------2-2-2-0-2-2-2-0-2-0-2-0-2-------|
|---------------------------------------------------------------------|

|-2--4--4--4/7--7--7/9--9--9--9/14--14-0-12-0-10-0-9-0----12-11-9-9---|
|-2--4--4--4/7--7--7/9--9--9--9---------------------------------------|
|---------------------------------------------------------------------|
|---------------------------------------------------------------------|
|---------------------------------------------------------------------|
|---------------------------------------------------------------------|

|-1/9-------12--0--0--0--2--2--2---2--2--2--2---2--2----2--2----2-----|
|-------12b-----0--0--0--2--2--2---2--2--2--2---2--2----2--2----2-----|
|--------------------------------4b-----------4b-----4b------4b-------|
|---------------------------------------------------------------------|
|---------------------------------------------------------------------|
|---------------------------------------------------------------------|

|---------------------------------------------------------------------|
|-----------------------------------2--2--2--------4b-----------------|
|-4--4--4b/2------------------------2--2--2--2--4b----4b-2--2--2--0---|
|------------4--2----------2--2--4------------------------------------|
|------------------4--2--4--------------------------------------------|
|---------------------------------------------------------------------|
[ Tab from: http://www.guitartabs.cc/tabs/g/guns_n_roses/think_about_you_tab_ver_2.html ]
|---------------------------------------------------------------------|
|-------------------------2-3-4-5--5-7----3-5-3-2--2--3--2-----2-3-4-5|
|-----------------2-3-4-5--------------7--------------------6---------|
|---------2-3-4-5-----------------------------------------------------|
|-2-3-4-5-------------------------------------------------------------|
|---------------------------------------------------------------------|

|----------------------------------------------5-4------------3/2-----|
|-5-7-5-3--3--3-5-3-2--2/3--2---2-3-4-5--5-7-5-----5/3--3-5-3-----2---|
|-----------------------------4---------------------------------------|
|---------------------------------------------------------------------|
|---------------------------------------------------------------------|
|---------------------------------------------------------------------|


|---------------------------------------------------5-4-----------3/2-|
|-6-x-x-6-----6--6--x--6-x--x--6-x--2-3-4-5--5-7-5------5/3--3-5-3---2|
|-6-x-x-6--x--6--6--x--6-x--x--6-x------------------------------------|
|-6-x-x-6--x--6--6--x--6-x--x--6-x------------------------------------|
|-------4-----4--4-----4-------4--------------------------------------|
|---------------------------------------------------------------------|

|---------------------------------------------------------------------|
|-6-6-6-6-6-6-6-6-6---------------------------------------------------|
|-6-6-6-6-6-6-6-6-6---------4--4--------4--------4--------4-----------|
|-6-6-6-6-6-6-6-6-6----7----4--4--6-----4-----6--4--6-----4-----6-----|
|-4-4-4-4-4-4-4-4-4----7----2--2--2--2--2--2--2--2--2--2--2--2--2-----|
|----------------------5----------------------------------------------|

|---------------------------------------------------------------------|
|---------------------------------------------------------------------|
|-2--2-----2--------2--------2----------------------------------------|
|-2--2--4--2-----4--2-----4--2----------------------9^----------------|
|-0--0--0--0--0--0--0--0--0--0----7--9b--9b--9b--7--------------------|
|---------------------------------------------------------------------|

|---------------------------------------------------------------------|
|---------------------------------------------------------------------|
|-5--4--2------------------------------------------------2--2--2--2--2|
|-5--4--2--5--3--2--0--5--5---5--5---5---5--5---5--5--5--2--2--2--2--2|
|----------5--3--2--0--5--5---5--5---5---5--5---5--5--5--0--0--0--0--0|
|----------------------3--3---3--3---3---3--3---3--3--3---------------|

|---------------------------------------------------------------------|
|---------------------------------------------------------------------|
|-----------------------------------------------------2--2--2--2------|
|-------------------5---5--5---5---5--5---5--5--5--5--2--2--2--2------|
|-3-2-0-3-2-0-------5---5--5---5---5--5---5--5--5--5--0--0--0--0------|
|-------------2-3---3---3--3---3---3--3---3--3--3--3------------------|

|-----------------------------0-----0--------0-----0--------0---------|
|-------------------------------3-----3--------3-----3--------3-------|
|-2--2--2--2--2--2--2-------4-----4-----4--2-----2-----2--0-----2-----|
|-2--2--2--2--2--2--2-------------------------------------------------|
|-0--0--0--0--0--0--0-------------------------------------------------|
|---------------------------------------------------------------------|

|--0-----0-----0-----0-----0-----0-----0--------0-----0--------0------|
|----3-----3-----3-----3-----3-----3-----3--------3-----3--------3----|
|------4-----2-----4-----2-----4-----4-----4--2-----2-----2--0-----2--|
|---------------------------------------------------------------------|
|---------------------------------------------------------------------|
|---------------------------------------------------------------------|

|-0-----0-----0-----0-----0--------0------0--------0-----0-----0------|
|---3-----3-----3-----3-----3--------3------3--------3-----3-----3----|
|-----4-----2-----4-----4-----4--2-----2------2--0-----2-----4-----2--|
|---------------------------------------------------------------------|
|---------------------------------------------------------------------|
|---------------------------------------------------------------------|


|-0-----0-----0--------0-----0--------0-----0-----0-------------------|
|---3-----3-----3--------3-----3--------3-----3-----3---3--2----------|
|-----4-----4-----4--2-----2-----2--0-----2-----4-----2-------4-------|
|---------------------------------------------------------------------|
|---------------------------------------------------------------------|
|---------------------------------------------------------------------|

|-7-7----7-7-7---7----7-7------------7--------------7---7----7--------|
|-7-7----7-7-7---7----7-7--7--7------7-7-------------10b-10b--10/7----|
|-----9b-----------9b------9b-9---9b---9b--7--9b--9-------------------|
|---------------------------------------------------------------------|
|---------------------------------------------------------------------|
|---------------------------------------------------------------------|

|------------------------10--9--7--9--7-------------------------------|
|----7-------------------10--9--7--9--7-------------------------------|
|-9b---9b--7-9-7-----8b------------------7b-------4--4-4--4--4--2--2--|
|----------------9-7-------------------------9^---4--4-4--4--4--2--2--|
|-------------------------------------------------2--2-2--2--2--0--0--|
|---------------------------------------------------------------------|

|-----------------------------------------3----------3----------------|
|-----------------------------------------3----------3--3-------------|
|-4--4-4--4-4--4--2--2--4--4-4--4--4-4-2--4-------4--------4--5/7-----|
|-4--4-4--4-4--4--2--2--4--4-4--4--4-4-2--5-----5-------------5/7-----|
|-2--2-2--2-2--2--0--0--2--2-2--2--2-2-0--5---5---------------3/5-----|
|-----------------------------------------3---------------------------|

|-5--------5-------------0-------0-------0--------0-------------------|
|-5--------5--5------------3-------3-------3--------3^-------3--------|
|-6------6------6------4-------4-------4--------4----------4----------|
|-7----7----------7------------------0-------------------4------------|
|-7--7---------------2-------4----------------4--------2--------------|
|-5-------------------------------------------------------------------|

|-0--------------^----------------------------------------------------|
|---3--------0---|----------------------------------------------------|
|-----4------4---|----------------------------------------------------|
|-------4----4---|----------------------------------------------------|
|------------2---|----------------------------------------------------|
|---------------------------------------------------------------------|

Good luck!

Sam
Comments