Guns N Roses - Sweet Child O Mine Chords & Tabs

 

Sweet Child O Mine Chords & Tabs

Guns N Roses Chords & Tabs

Version: 2 Type: Chords 0 ratings
1 star 2 stars 3 stars 4 stars 5 stars
comments

Sweet Child O Mine Chords

   
   
   Guns N' Roses
   Sweet Child O' Mine

   [C#] He's got a smile that it seems to me 
   [B] Reminds me of childhood memories 
   Where [F#] everything was as fresh as the bright blue[C#] sky 
   [C#] Now and then when I see his face 
   [B] It takes me away to that special place 
   and if I [F#] stay too long I'd probably break down and [C#] cry 

   [Ab] Oh [B] oh, sweet child of [F#] mine 
   [Ab] Oh, oh, [B] oh, sweet love of [F#] mine

   {fill 1}

	E:|-------------------------------------------------------------|
	B:|----9---7--6------9---7--6-----9---7-------9---7-----9-\-7---|
	G:|-------------------------------------8------------8----------|
	D:|-------------------------------------------------------------|
	A:|-------------------------------------------------------------|
	E:|-------------------------------------------------------------|

	E:|------------------9---9-^--(9-)---------------|
	B:|-9--^--(9)7--9--^-----------------------------|
	G:|--------------------------------8-^-----------|
	D:|----------------------------------------------|
	A:|----------------------------------------------|
	E:|----------------------------------------------|
 

   [C#] He's got eyes of the bluest sky 
   [B] and if they thought of rain 
   I'd [F#] hate to look into those eyes and [C#] see an ounce of pain 
   [C#] His hair reminds me of a warm safe place 
   [B] where as a child I'd hide 
   and [F#] pray for the thunder and for the rain to [C#] quietly pass me by 

   [Ab] Oh [B] oh, sweet child of [F#] mine 
   [Ab] Oh, oh, [B] oh, sweet love of [F#] mine

   {fill 2} 

	E:|-------------------------------------------------------------|
	B:|----9---7--6------9---7--6-----9---7-------9---7-----9-\-7---|
	G:|-------------------------------------8------------8----------|
	D:|-------------------------------------------------------------|
	A:|-------------------------------------------------------------|
	E:|-------------------------------------------------------------|
[ Tab from: http://www.guitartabs.cc/tabs/g/guns_n_roses/sweet_child_o_mine_crd_ver_2.html ]
	E:|--------------------------------9---------------------|
	B:|-9--\-7-6hb--(6)----6-^------------(6)-----9-----7--6-|
	G:|------------------6-----------------------------------|
	D:|------------------------------------------------------|
	A:|------------------------------------------------------|
	E:|------------------------------------------------------|

	E:|------------------------9-----9--\-7-------/11--------|
	B:|-9----7----6-----/9--^--------------------------------|
	G:|------------------------------------------------------|
	D:|------------------------------------------------------|
	A:|------------------------------------------------------|
	E:|------------------------------------------------------|

	E:|--11---11-\-9----9--(9)\--7---6-^--(6)----------------|
	B:|-----------------------------------------7------------|
	G:|---------------------------------------------6-~~~~~~~|
	D:|------------------------------------------------------|
	A:|------------------------------------------------------|
	E:|------------------------------------------------------|

	E:|-----------------------9----9-^---(9)--------------16----(16)|
	B:|-9--^---(9)p7---9--^-------------------16-^---(16)-------(16)|
	G:|-------------------------------------------------------------|
	D:|-------------------------------------------------------------|
	A:|-------------------------------------------------------------|
	E:|-------------------------------------------------------------|


   [Ab] Oh [B] oh sweet child of [F#] mine 
   [Ab] Ooooo oh, oh, [B] oh sweet love of [F#] mine 
   [Ab] Oh, oh, oh, [B] oh sweet child of [F#] mine 
   Hey, hey-hey [Ab] Oh [B] sweet love of [F#] mine


   {guitar solo; chords: Ebm, F#, Ab, B, C#} 

   [Ebm] Where do we go, [F#] where do we go now, [Ab] where do we go [B] [C#] 
   [Ebm] Where do we go, [F#] where do we go now, [Ab] where do we go [B] [C#] 
   [Ebm]Where do we go, [F#] sweet child, [Ab] where do we go now [B] [C#] 
   [Ebm]Ahhhhh[F#]hhhh, [Ab]where do we goooo[B]oooo[C#]ooooo 
   [Ebm] Where do we go, [F#] sweet child, [Ab] where do we go now [B] [C#] 
   [Ebm] Where do we gooo[F#]oooo, [Ab]where do we go now [B] [C#] 
   [Ebm] Where do we gooo[F#]oooo, [Ab]where do we go now [B] [C#] 
   [Ebm] Where do we go, [F#] [Ab] where do we go now [B][Ebm] Na[A]na[Ab]na[G]na[F#]na[Ebm]na 
   [Ebm] Sweet [F#] child, sweet [Ab] chi-[B] . . .[C#] ld of [Ebm] mine [Eb]
Comments