Guns N Roses - Since I Dont Have You Chords & Tabs

 

Since I Dont Have You Chords & Tabs

Guns N Roses Chords & Tabs

Version: 3 Type: Tab 0 ratings
1 star 2 stars 3 stars 4 stars 5 stars
comments

Since I Dont Have You Tab

   
1.SINCE I DON'T HAVE YOU
boxofmetallica@hotmail.com

enjoi

INTRO:
E----------------------------------------------------------|
B----------------------------------------------------------|
G----(18)--------------------------------------------------|
D--------18h19p18p16h(18)-18h19p18p16----------------------|
A-16---------------------------------------------(17)------|
E----------------------------------------------------------|

E----------------------------------------------------------|
B-----18^18-16^16------------------------------------------|
G----------------------18----------------------------------|
D--------------------------18h19p18p16---------------------|
A-16------------------------------------------17-----------|
E----------------------------------------------------------|
[ Tab from: http://www.guitartabs.cc/tabs/g/guns_n_roses/since_i_dont_have_you_tab_ver_3.html ]
E----------------------------------------------------------|
B----------------------------------------------------------|
G----------------------------------------------------------|
D-13--15--13--15--18--16--13--11-----11-13-11\-------------|
A----------------------------------------13----------------|
E----------------------------------------------------------|


During the verse just play this chords: Gmaj, Cm, Dmaj.
In the chorus play this chords: Gmaj, Cm, Am, Dmaj.

E-3-----3-----5--------5-----------------------------------|
B-3-----4-----7--------5-----------------------------------|
G-4-----5-----7--------5-----------------------------------|
D-5-----5-----7--------7-----------------------------------|
A-5-----3-----5--------7-----------------------------------|
E-3-----3-----5--------5-----------------------------------|
Gmaj  Cm   Dmaj     Am
Comments