Guns N Roses - Since I Dont Have You Chords & Tabs

 

Since I Dont Have You Chords & Tabs

Guns N Roses Chords & Tabs

Version: 2 Type: Tab 0 ratings
1 star 2 stars 3 stars 4 stars 5 stars
comments

Since I Dont Have You Tab

Guns N Roses
Since I dont have you
Tuned 1/2 a step down LIKE ALL GNR

Slash's intro goes a little something like this...you can tinker with it to get it just 
 Use a LOT of reverb when playin this.
[ Tab from: http://www.guitartabs.cc/tabs/g/guns_n_roses/since_i_dont_have_you_tab_ver_2.html ]
---------------------------------------------------------|
------13b15---10br------10-----10h11p10------------------|
--------------------12-------------------8-7-------------|  x2
--12-----------------------------------------------------|
---------------------------------------------------------|
---------------------------------------------------------|
then
----14br--14--12h14p12-10--------------------------------|
----------------------------10br----10--10h11p10---------|
---------------------------------12---------------10-8---|
---------------------------------------------------------|
---------------------------------------------------------|
---------------------------------------------------------|

---------------------------------------|
---------------------------------------|
--/9-11-9--11--14--11--9---7------7h9--|
-----------------------------9---------|
---------------------------------------|
---------------------------------------|


Then all the chords in the progession are 1/2 notes

G  Emin  Amin7th  Dmin7thflat5.   and for the 3rd part og the verse where he says 
dont ahve anything" just repeat the Amin7th and the Dmin7thflat5.


G=355433 bar your index finger

Emin=57765 bar your index

Amin7th= 5x5555

Dmin7thflat5=x5454x

Keep practicing the switch from the Amin7th to the Dmin7thfalt5 it can ber a little tricky
Comments