Guns N Roses - Rocket Queen Chords & Tabs

 

Rocket Queen Chords & Tabs

Guns N Roses Chords & Tabs

Version: 4 Type: Tab 0 ratings
1 star 2 stars 3 stars 4 stars 5 stars
comments

Rocket Queen Tab

   
Band:Guns N'Roses
Song:Rocket Queen
Album:Appetite For Destruction
Tabbed:Luke(destination_hell_666@hotmail.com)

\ = Slide down
/ = Slide Up
B = Bend
~ = Vibrato
h = Hammer On
P = Pull Off

(intro)    rhythm Guitar plays F chord in intro. Listen to song

E-----------------------------------------------------------------------------------|
B-----------------------------------------------------------------------------------|
G-----------------------------------------------------------------------------------|
D-----------------------------------------------------------------------------------|
A-----0-h1-------0-h1-0-h1-----0-h1-----0-h1-0-h1----0-h1-----0-h1-0-h1----0-h1-0---|
E-0-2------0-0-2-----------0-2-----0-0-2---------0-2-----0-0-2----------0-2-------2-|


(verse)

E---------------------------------------------------------------------------------|
B---------------------------------------------------------------------------------|
G-11----16--14----9----11-------4-4-4-4-4-4-4-4-4-4-6666666666666-44444444444-----|
D-11----16--14----9----11-------4-4-4-4-4-4-4-4-4-4-6666666666666-44444444444-----|
A-9---------------7-----9-------2-2-2-2-2-2-2-2-2-2-4444444444444-22222222222-----|
E---------------------------------------------------------------------------------|
                                      Listen to song for strum pattern

(chorus)

E-------------------------------------------------------------------------------------|
B-------------------------------------------------------------------------------------|
G--------------9----------------------------------------------------------------------|
D--4--2--7--9--9--4----------------------------4-2------------------------------------|
A--4--2--7--9--7--4----Repeat 2 Times--------------4-2-4-2-0--2-0---------------------|
E--2-----5--7-----2-----------------------------------------------2-0---1-------------|

Listen to song for timing


E------------------------------------------------------------------------------------|
B------------------------------------------------------------------------------------|
G------------------------------------------------------------------------------------|
D------------------------------------------------------------------------------------|
A-----0-h1-------0-h1-0-h1-----0-h1-----0-h1-0-h1----0-h1-----0-h1-0-h1----0-h1-0----|
E-0-2------0-0-2-----------0-2-----0-0-2---------0-2-----0-0-2----------0-2-------2--|
Same as intro and back to verse again

(verse)

E-----------------------------------------------------------------------------|
B-----------------------------------------------------------------------------|
G-11----16--14----9----11-------4-4-4-4-4-4-4-4-4-4-6666666666666-44444444444-|
D-11----16--14----9----11-------4-4-4-4-4-4-4-4-4-4-6666666666666-44444444444-|
A-9---------------7-----9-------2-2-2-2-2-2-2-2-2-2-4444444444444-22222222222-|
E-----------------------------------------------------------------------------|
                                      Listen to song for strum pattern


(chorus)

E-------------------------------------------------------------------------------------|
B-------------------------------------------------------------------------------------|
G--------------9----------------------------------------------------------------------|
D--4--2--7--9--9--4----------------------------4-2------------------------------------|
A--4--2--7--9--7--4----Repeat 2 Times--------------4-2-4-2-0--2-0---------------------|
E--2-----5--7-----2-----------------------------------------------2-0---1-------------|


E-----------------------------------------------------------------------------------|
B-----------------------------------------------------------------------------------|
G-----------------------------------------------------------------------------------|
D-----------------------------------------------------------------------------------|
A-----0-h1-------0-h1-0-h1-----0-h1-----0-h1-0-h1----0-h1-----0-h1-0-h1----0-h1-0---|
E-0-2------0-0-2-----------0-2-----0-0-2---------0-2-----0-0-2----------0-2-------2-|


(solo 1)

E----------------------7-/-9----7-/-9-----9----9-/-11----9-/-11----b9-9-9-------------|
B--7~--7-/-10-------7~------10~------10~---10--------12~-------12~--------b9-b9-7-/-9-|
G------------b8-b8--------------------------------------------------------------------|
D-------------------------------------------------------------------------------------|
A-------------------------------------------------------------------------------------|
E-------------------------------------------------------------------------------------|
[ Tab from: http://www.guitartabs.cc/tabs/g/guns_n_roses/rocket_queen_tab_ver_4.html ]
E--///--18-18---b21--18-20-20--//////-----|
B-----------------------------------------|
G-----------------------------------------|
D-----------------------------------------|
A-----------------------------------------|
E-----------------------------------------|

(chorus)

E-------------------------------------------------------------------------------------|
B-------------------------------------------------------------------------------------|
G--------------9----------------------------------------------------------------------|
D--4--2--7--9--9--4----------------------------4-2------------------------------------|
A--4--2--7--9--7--4----Repeat 2 Times--------------4-2-4-2-0--2-0---------------------|
E--2-----5--7-----2-----------------------------------------------2-0---1-------------|

(Bridge)

E------------------|---------------------------------------------------------------|
B------------------|---------------------------------------------------------------|
G------------------|------9--4--6-----------------------9-----4--------------------|
D--4-4-4-4-4-------|------9--4--6-----------------------9--7--4--------------------|
A--4-4-4-4-4-------|------7--2--4-----------------------7--7--2--2-4-5-6-----------|
E--2-2-2-2-2-------|--0-0----------4-/-7-7-9-7--3-4-0-0----5-------------7-3-2-0-0-|
Use song for amount

E-------------------|
B-------------------| Repeat Twice
G--9--4--6----9---4-|
D--9--4--6----9---4-|
A--7--2--4----7---2-|
E----------b2---b2--|


(verse)  (Clean)

E--------------------------------------4---------------------------|
B--5-5-7--5-4-5-7---5-5---5-5-------5-5---5-4-5-7---5-5---5-5-4-7--|Repeat Twice
G----------------6-----6-----6-4------------------6-----6----------|
D------------------------------------------------------------------|
A------------------------------------------------------------------|
E------------------------------------------------------------------|


E------------------------------------------------------------------|
B------------------------------------------------------------------|
G------9--4--6-----------------------9-----4-----------------------|
D------9--4--6-----------------------9--7--4-----------------------|
A------7--2--4-----------------------7--7--2--2-4-5-6--------------|
E--0-0----------4-/-7-7-9-7--3-4-0-0----5-------------7-3-2-0-0----|


E-------------------|
B-------------------| Repeat Twice
G--9--4--6----9---4-|
D--9--4--6----9---4-|
A--7--2--4----7---2-|
E----------b2---b2--|


(Solo) 2

E-------------------------------------------------------------------------------------|
B------------------------------------------------------------b12-12-------b12-12------|
G-b11--b11--9-h11-b11-----11b-p11-9-11b-11b~---b11-b11-b11-9--------13-11-------b11-9-|
D--------------------11---------------------------------------------------------------|
A-------------------------------------------------------------------------------------|
E-------------------------------------------------------------------------------------|

E-------------------------------------------------------------------------------------|
B-b16-------------------------b19-b19-17-hb19-17-------------------171717-------------|
G-----16-14-------------------------------------18-18-16-181818-16-------16-181818-16-|
D-----------16-14--b12----------------------------------------------------------------|
A----------------------14-------------------------------------------------------------|
E-------------------------------------------------------------------------------------|

E------------------------------------------------------------------------------------|
B-b19-b19-17-hb19-17--------------------------------16-h17-17-16-17-16-13h1413h14----|
G--------------------b18-16-16-18-16---18~----16-18----------------------------------|
D------------------------------------18----------------------------------------------|
A------------------------------------------------------------------------------------|
E------------------------------------------------------------------------------------|

E------------------------------------------------------------------------------------|
B--11h1211h12------------------------------------17-b17-17~--16-17-16---------16-17~-|
G-------------12h1312h13-10h1110h11--------16h18----------------------16---16--------|
D------------------------------------14h16------------------------------16~----------|
A------------------------------------------------------------------------------------|
E------------------------------------------------------------------------------------|

(Outro)

E------------------------------------------------------------------------------------|
B------------------------------------------------------------------------------------|
G-------9--8--6-------9--8----------9--8--6--44----------9 Let ring end song---------|
D-------9--8--6-------9--8--9-------9--8--6--44--7--666--9---------------------------|
A-------7--6--4-------7--6--9-------7--6--4--22--7--666--7---------------------------|
E---0-0-----------0-0-------7---0-0--------------5--444------------------------------|
Comments