Guns N Roses - Patience Chords & Tabs

 

Patience Chords & Tabs

Guns N Roses Chords & Tabs

Version: 7 Type: Tab

Patience Tab

Guns N' Roses
Patience

*this song is tuned half step down in order to do that your guitar has to be at standerd
then you hold down the d string on the 1st fret and hit the low E string at the same
until they sound the same. then you hold down low e string on the 5 fret and hit the a
at the same time until they sound the same. then you hold down the a string on the 5
and hit the d string at the same time until they sound the same. then you hold down d
on the 5 fret and hit the g string at the same time until they sound the same. then you
down g string on the 4 fret and hit the b string at the same time until they sound the
then you hold down  b string on the 5 fret and hit the high e string at the same
until they sound the same.


       Intro
     D#--------0-0---------------------------------------------|
  I  A#--------1-1--1--1--3p1-1--0h1--1--1p0--------0----------|
  z  F#------0------0--0--0---0--0----0--0--------0---0--------|
  z  C#--2-2--------2--2--2---2--2----2--2------0-------0------|
  y  G#--3----------3--3--3---3--3----3--3----2-----------2----|
     D#--------------------------------------------------------|

     D#------------------------------------------------------|
   I A#--1p0---------------2---------0--3p2---0h2-2----------|
   z F#------0-2p0---0h2-----2---2----------2-0h2-2-2--0-----|
   z C#------------0-0h2-------2---2--------2-------2--0-----|
   y G#------------------0-----------------------------------|
     D#------------------------------------------------------|

      |---2----2----2-2------3p2--2--0--2-------|
   I  |---3--3----3-----3-3--3----3--3--3-------|
   z  |---2---------------2--2----2--2--2-------|
   z  |---0---------------0--0----0--0--0-------|
   y  |-----------------------------------------|
      |-----------------------------------------|
    Repeat the above while slash plays the following:

|------------------10--------------------7-8-9-10--------------------|
|-----8--8--10--12----12/10--8-10-8-10fb----------10fb--8--10----10--|
|--7-----------------------------------------------------------9-----|
|--------------------------------------------------------------------|
|--------------------------------------------------------------------|
|--------------------------------------------------------------------|

|--7/8/9-----10----8-----7-------7/5-----------0------------|
|---------------------------8----------------1---3p1--------|
|--7/8/9--11-----9----7-------7--7/5-------0------------0---|
|----------------------------------------3------------2-----|
|----------------------------------------2------------------|
|-----------------------------------------------------------|

|----------------------------------------------------------------|
|-----------------------1---------------0--------1---------------|
|--------0------------0---0--------------------0---0-------------|
|------0----0-------2-------2---------2------2-------2-----------|
|----2--------2---3-----------------2------3-----------3--2--2---|
|--3------------3-------------3-2-0--------------------------3---|

|-----------------2-------------------------------------|
|--------0------3---------------------------------------|
|------0---0----2---------------------------------------|
|----0-------0--0---------------------------------------|
|--2----------------------------------------------------|
|-------------------------------------------------------|

   Verse(fig 1)

|--------------------------------------------------------------|
|-------1-----------3-1---1------------------------------------|
|-----0-----------------0---0------------0-----------0---------|
|---2-------------------------2--------0-----------0---0-----0-|
|-3-----------------------------3-0--2-----0-----2-------2-----|
|--------------------------------------------3-3-----------3---|
|   Slash
|__________
|   Izzy
|-----------------------------------------------------------------|
|-------1--1--1--1--3p1---0---1-----------------------------------|
|-----0----0--0--0--0-----------0----------------------0-------0--|
|---2------2--2--2--2-----------------------------0------0--2--0--|
|-3--------3--3--3--3---3---------3--2---2-0------2--0------------|
|----------------------------------------------3------------------|

|--------5-------5-----5----------------0-2----3-2---0--2----|
|------5---5-----5-------5------------3----------------------|
|----6-----------6h7-----------------------------------------|
|--7---------7---------------------0---------0---------------|
|---------------------------0--3-4---------------------------|
|------------------------------------------------------------|
|      slash
|_____________________
|
|      Izzy
|----------5-------------------------------------------------|
|--------2----3p2---0--2--------------2-2-4-2----------------|
|------2-------------------------0--4---------4--------------|
|--2--------------2-----------0-----------------0------------|
|--0-------------------0--3-4--------------------------------|
|------------------------------------------------------------|

|--------------------------------------------------------------|
|-------1-----------3-1---1------------------------------------|
|-----0-----------------0---0------------0-----------0---------|
|---2-------------------------2--------0-----------0---0-----0-|
|-3-----------------------------3-0--2-----0-----2-------2-----|
|--------------------------------------------3-3-----------3---|
|   Slash
|__________
|   Izzy
|-----------------------------------------------------------------|
|-------1--1--1--1--3p1---0---1-----------------------------------|
|-----0----0--0--0--0-----------0----------------------0-------0--|
|---2------2--2--2--2-----------------------------0------0--2--0--|
|-3--------3--3--3--3---3---------3--2---2-0------2--0------------|
|----------------------------------------------3------------------|

|--------5-------5-----5---------------2-0-2---------------------|
|------5---5-----5-------5-------------------3------3-3-3--3--0--|
|----6-----------6h7---------------------------2-0------2--2--0--|
|--7---------7---------------------0--------------------0--0--0--|
|---------------------------0--3-4-------------------------------|
|----------------------------------------------------------------|
|      slash
|_____________________
|
|      Izzy
|----------5-----------------------0--2-------3-2-0--0--2--------|
|--------2----3p2---0--2---------3------3---------3--3--3----0---|
|------2----------------------------------2----------3--2--2-----|
|--2--------------2-----------0-------------0--------------------|
|--0-------------------0--3-4------------------------------------|
|----------------------------------------------------------------|

 Chorus
  fig 2
|----------------3--------------------------0------------------0---|
|-1--1--3--3-0-3---3---0-----1------------0---0----------------1---|
|-0--0--0------------0----0--0------------------0---0----0-----0---|
|-2--2--0-----------------2--2----------2---------2----2----2------|
|-3--3--2-----------------3--3-------------------------3----3------|
|-------3-----------------------3--2--0----------------------------|

|----------------------------|-2--2-----0--2--3-----2----0---2--------|
|--1--1--0------------------0|-3--3--3--2--3--3--3--3-3--3-3-3--3--0--|
|--0--0--0--0-----0---------0|-2--2--2--3--2--2--2--2-2--2-2-2--2--0--|
|--2--2--0--0--0------0-----0|-0--0--0--0--0--0--0--0-0--0-0-0--0--0--|
|--3--3-----2------------2---|----------------------------------------|
|-----------3----------------|----------------------------------------|
                    end fig 2|
[ Tab from: http://www.guitartabs.cc/tabs/g/guns_n_roses/patience_tab_ver_7.html ]
|-------------------3-------------------------0-----------------0----|
|---1---1--3--3-0-3---3---0-----1-----------0---0---------------1----|
|---0---0--0------------0----0--0-----------------0---0-----0---0----|
|---2---2--0-----------------2--2---------2---------2-----2---2------|
|---3---3--2-----------------3--3-------------------------3---3------|
|----------3-----------------------3-2--0----------------------------|

|-------------------------2---2-2-2-------10-------14----14----14---14---14-|
|--1--1--0-------------0--3---3-3-3--5/10-----------------------------------|
|--0--0--0--0----0-----0--2---2-2-2--6/11------7/14----14----14---14---14---|
|--2--2--0--0--0---0---0--0---0-0-0--7/12-----------------------------------|
|--3--3-----2--------2------------------------------------------------------|
|-----------3---------------------------------------------------------------|

  Verse(fig 1)

|--------------------------------------------------------------|
|-------1-----------3-1---1------------------------------------|
|-----0-----------------0---0------------0-----------0---------|
|---2-------------------------2--------0-----------0---0-----0-|
|-3-----------------------------3-0--2-----0-----2-------2-----|
|--------------------------------------------3-3-----------3---|
|   Slash
|__________
|   Izzy
|-----------------------------------------------------------------|
|-------1--1--1--1--3p1---0---1-----------------------------------|
|-----0----0--0--0--0-----------0----------------------0-------0--|
|---2------2--2--2--2-----------------------------0------0--2--0--|
|-3--------3--3--3--3---3---------3--2---2-0------2--0------------|
|----------------------------------------------3------------------|

|--------5-------5-----5----------------0-2----3-2---0--2----|
|------5---5-----5-------5------------3----------------------|
|----6-----------6h7-----------------------------------------|
|--7---------7---------------------0---------0---------------|
|---------------------------0--3-4---------------------------|
|------------------------------------------------------------|
|      slash
|_____________________
|
|      Izzy
|----------5-------------------------------------------------|
|--------2----3p2---0--2--------------2-2-4-2----------------|
|------2-------------------------0--4---------4--------------|
|--2--------------2-----------0-----------------0------------|
|--0-------------------0--3-4--------------------------------|
|------------------------------------------------------------|

|--------------------------------------------------------------|
|-------1-----------3-1---1------------------------------------|
|-----0-----------------0---0------------0-----------0---------|
|---2-------------------------2--------0-----------0---0-----0-|
|-3-----------------------------3-0--2-----0-----2-------2-----|
|--------------------------------------------3-3-----------3---|
|   Slash
|__________
|   Izzy
|-----------------------------------------------------------------|
|-------1--1--1--1--3p1---0---1-----------------------------------|
|-----0----0--0--0--0-----------0----------------------0-------0--|
|---2------2--2--2--2-----------------------------0------0--2--0--|
|-3--------3--3--3--3---3---------3--2---2-0------2--0------------|
|----------------------------------------------3------------------|

|--------5-------5-----5---------------2-0-2---------------------|
|------5---5-----5-------5-------------------3------3-3-3--3--0--|
|----6-----------6h7---------------------------2-0------2--2--0--|
|--7---------7---------------------0--------------------0--0--0--|
|---------------------------0--3-4-------------------------------|
|----------------------------------------------------------------|
|      slash
|_____________________
|
|      Izzy
|----------5-----------------------0--2-------3-2-0--0--2--------|
|--------2----3p2---0--2---------3------3---------3--3--3----0---|
|------2----------------------------------2----------3--2--2-----|
|--2--------------2-----------0-------------0--------------------|
|--0-------------------0--3-4------------------------------------|
|----------------------------------------------------------------|

 Chorus
  fig 2
|----------------3--------------------------0------------------0---|
|-1--1--3--3-0-3---3---0-----1------------0---0----------------1---|
|-0--0--0------------0----0--0------------------0---0----0-----0---|
|-2--2--0-----------------2--2----------2---------2----2----2------|
|-3--3--2-----------------3--3-------------------------3----3------|
|-------3-----------------------3--2--0----------------------------|

|----------------------------|-2--2-----0--2--3-----2----0---2--------|
|--1--1--0------------------0|-3--3--3--2--3--3--3--3-3--3-3-3--3--0--|
|--0--0--0--0-----0---------0|-2--2--2--3--2--2--2--2-2--2-2-2--2--0--|
|--2--2--0--0--0------0-----0|-0--0--0--0--0--0--0--0-0--0-0-0--0--0--|
|--3--3-----2------------2---|----------------------------------------|
|-----------3----------------|----------------------------------------|
                    end fig 2|

|-------------------3-------------------------0-----------------0----|
|---1---1--3--3-0-3---3---0-----1-----------0---0---------------1----|
|---0---0--0------------0----0--0-----------------0---0-----0---0----|
|---2---2--0-----------------2--2---------2---------2-----2---2------|
|---3---3--2-----------------3--3-------------------------3---3------|
|----------3-----------------------3-2--0----------------------------|

|-------------------------2---2-2-2-------10-------14--------|
|--1--1--0-------------0--3---3-3-3--5/10--------------------|
|--0--0--0--0----0-----0--2---2-2-2--6/11--------------------|
|--2--2--0--0--0---0---0--0---0-0-0--7/12--------------------|
|--3--3-----2--------2---------------------------------------|
|-----------3------------------------------------------------|

solo
|---8p7--8--8/10-8-----------8p7--8---8/10--10/12--8p7--8-----|
|-------------------10/2--8-----------------------------------|
|-------------------------------------------------------------|
|-------------------------------------------------------------|
|-------------------------------------------------------------|
|-------------------------------------------------------------|

|---8/10--8-----------------10/12--10-10--12/14-12-10h12-10---|
|-----------10/12--10-8-8-8-----------------------------------|
|-------------------------------------------------------------|
|-------------------------------------------------------------|
|-------------------------------------------------------------|
|-------------------------------------------------------------|

|--------------------------------------------------------------------------|
|-----5-8------------------------------------------------------------------|
|-7fb------7fb-5--7--------4--7---------------5-8-------------8-10fbrp8----|
|---------------------7fb--------7fbr--5--7fb------7fb--5-7/9--------------|
|--------------------------------------------------------------------------|
|--------------------------------------------------------------------------|

|----------------------------------------------------------------------|
|----8-10--10fb10r-8--10----8--10fb--8--10----8--10--8-10/12--10-10----|
|--9----------------------9-----------------9--------------------------|
|----------------------------------------------------------------------|
|----------------------------------------------------------------------|
|----------------------------------------------------------------------|

|---------------------------------------------------------------------|
|--3h5--3-----------------7b-7----------------7b--7-5-7--------3------|
|-----------4p2------2----------4p2------2/5------------7-2-0--2------|
|----------------3h4---0------------3h4--0------------------0--0------|
|---------------------------------------------------------------------|
|---------------------------------------------------------------------|

you figure out the rest i hate strumming so i didn't try o put it in