Guns N Roses - Paradise City Chords & Tabs

 

Paradise City Chords & Tabs

Guns N Roses Chords & Tabs

Version: 4 Type: Bass Tab 0 ratings
1 star 2 stars 3 stars 4 stars 5 stars
comments

Paradise City Bass Tab

PARADISE CITY
GUNS N ROSES.
NOTE: I DO NOT SAY THE AMOUNT OF TIMES EACH LINE IS PLAYED.
JUST LISTEN TO THE SONG AND ITS EASY TO FIGURE OUT YOURSELF!

INTRO
G---|-------------------|-----------------------------|
D---|-----------3-------|-----------3------5-5-5------|
A---|------3-------3----|------3-------3--------6-5-4-|
E---|-3---------------3-|-3---------------3-----------| x2

                         VERSE              BRIDGE
G-----------------------|-------------------|-----------------------------|
D-----------3-----------|-------------------|-----------------------------|
A------3-------3--------|---------------3-1-|-----------------6-5-4-------|
E-3---------------3---/-|-3-1-2-3-2-1-3-----|-3-1-2-3-1-2-3---------6-5-4-|

VERSE                       BRIDGE
G---------------|-----|----|-----------------------------|
D---------------|-----|----|-----------------------------|
A---------------|-1-3-|3-1-|-----------------6-5-4-------|
E-3-1-2-3-1-2-3-|-----|----|-3-1-2-3-1-2-3---------6-5-4-|

CHORUS
G----------------------------------------------------|
D-----------------------------3-----------5-5-5------|
A---------------3-3-3-0-3-3-3-----3------------6-5-4-|
E-3-3-3-0-3-3-3-----------------------3--------------|

CHORUS CONT'D                                 VERSE
G--------------------------------------------|---------------|-----|-----|
D-----------------------------3--------------|---------------|-----|-----|
A---------------3-3-3-0-3-3-3-----3----------|---------------|-1-3-|-3-1-|
E-3-3-3-0-3-3-3-----------------------3---/--|-3-1-2-3-1-2-3-|-----|-----|

BRIDGE                         CHORUS
G-----------------------------|----------------------------------------|
D-----------------------------|------------------------------3---------|
A-----------------6-5-4-------|---------------3-3-3-0-3-3-3------3-----|
E-3-1-2-3-1-2-3---------6-5-4-|-3-3-3-0-3-3-3------------------------3-|

CHORUS CONT'D
G------------------------------------------------------|
D-5-5-5------------------------------------3-----------|
A--------6-5-4---------------3-3-3-0-3-3-3------3------|
E--------------3-3-3-0-3-3-3-------------------------3-|
[ Tab from: http://www.guitartabs.cc/tabs/g/guns_n_roses/paradise_city_btab_ver_4.html ]
GUITAR SOLO                             AFTER SOL0 (SO FAR AWAY....)
G-------------------|-------------------|----------------|
D-------------------|-------------------|----------------|
A---------------5-3-|---------------7-5-|----------------|
E-5-3-4-5-3-4-5-----|-7-5-6-7-5-6-7-----|-5-5-5--5-5-5---|

AFTER SOLO CONT'D        (SO FAR AWAY....)
G----------------|---------------------------|
D----------------|---------------------------|
A----------------|---------------------3---1-|
E-3-3-3--3-3-3-4-|-5-5-5--5-5-5--5-5-5-------|

VERSE                BRIDGE
G---------------|------|-----|------------------------------|
D---------------|------|-----|------------------------------|
A---------------|--1-3-|-3-1-|------------------6-5-4-------|
E-3-1-2-3-1-2-3-|------|-----|-3-1-2-3-1-2-3----------6-5-4-|

CHORUS
G--------------------------------------------------------|
D-----------------------------3--------------5-5-5-------|
A---------------3-3-3-0-3-3-3------3---------------6-5-4-|
E-3-3-3-0-3-3-3-------------------------3----------------|

G----------------------------------------------------------|
D-----------------------------3----------------------------|
A---------------3-3-3-0-3-3-3------3------------1/10-----\-|
E-3-3-3-0-3-3-3-------------------------3------------------|

OUTRO

G-------------------------------------------------------------|
D-----------------------------3-3-3-3-------------------------|
A---------------3-3-3-3-3-3-3---------3-3-3-3-3---------------|
E-3-3-3-3-3-3-3-------------------------------------3-3-3-3-3-|

G--------------------------------------------------------------------------|
D-----------------------------3-3-3-3---------9-9-10-10-11---9-9-10-11-11--|
A---------------3-3-3-3-3-3-3---------3-3-3/10-------------10--------------|
E-3-3-3-3-3-3-3------------------------------------------------------------|

G-------------------------------------------------------------|
D-----------------------------3-3-3-3-------------------------|
A---------------3-3-3-3-3-3-3---------3-3-3-3/10-10/17-17-17\-|
E-3-3-3-3-3-3-3-----------------------------------------------|

THEIR IS OTHER VARIOUS OUTRO LINES BUT I DONT KNOW THEM ALL.
Comments