Guns N Roses - Paradise City Chords & Tabs

 

Paradise City Chords & Tabs

Guns N Roses Chords & Tabs

Version: 3 Type: Bass Tab 0 ratings
1 star 2 stars 3 stars 4 stars 5 stars
comments

Paradise City Bass Tab

Paradise City - Guns N' Roses
-----------------------------------------------------------------------------

Tabbed By :George Sousouris 
e-mail:Gsou897@aol.com 

Tuning: Standard
Intro. Reapeat this x2
G|--------------------------------------------------------------------------|
D|-----2-----------2-----4444-----------------------------------------------|
A|---2---2------2----2------------------------------------------------------|
E|-2-------2--2----0--2-----------------------------------------------------|
Verse 
G|--------------------------------------------------------------------------|
D|--------------------------------------------------------------------------|
A|--------------------------------------------------------------------------|
E|--2-0-1-2-0-1-2-0-1-2-5---2-0-1-2-0-1-2-0-1-2-5--2-0-1-2-0-1-2-0-1-2-5----|
[ Tab from: http://www.guitartabs.cc/tabs/g/guns_n_roses/paradise_city_btab_ver_3.html ]
G|--------------------------------------------------------------------------|
D|--------------------------------------------------------------------------|
A|-----------------------2-0------------------------------------------------|
E|-2-0-1-2-0-1-2-0-1-222----------------------------------------------------|
Bass/drum fill in the middle of the verses goes like this, it's very quick.
G|----------------------------------------------------------|
D|-----------------------------------------------------------|
A|--2-3-2-0-2-0-----------------------------------------------------|
E|---------------0-2------------------------------------------|
Chourus (reapeat as needed)
G|--------------------------------------------------------------------------|
D|----------2-2-------44-44-2--------2-2------------------------------------|
A|------2-2-----2-------------4----2-----2----------------------------------|
E|--2-2-----0-----22------------22---0-----2--------------------------------|
Bridge/Guitar solo-do the regular verse, and then follow what I wrote here for when it goes higher.
G|--------------------------------------------------------------------------|
D|--------------------------------------------------------------------------|
A|-----------------------------2--------------------------------------------|
E|--4-2-3-4-2-3-4-2-3-4--2-3-4---2-0-1-2-0-1-2-0-1-2--5---------------------|

G|--------------------------------------------------------------------------|
D|--------------------------------------------------------------------------|
A|--------------------------------------------------------------------------|
E|--44444--44444-22222-22222-44444-44444-22222-22222-44444-44444-22222-2222-|

G|--44444-44444-22222-22222-2-----------------------------------------------|
D|----------------------------2--/-into verse again-------------------------|
A|--------------------------------------------------------------------------|
E|--------------------------------------------------------------------------
Play the chourus fast until the end. Ocassoinally hevaries it like this-
G|--------------------------------------------------------------------------|
D|-----------------2222-------------88-99-1010------------------------------|
A|---------22222222----2222-------9-----------------------------------------|
E|-22222222----------------2222---------------------------------------------|

Order of song
Intro.
Verse 
Chourus
verse
chourus
Part of verse, Bridge guitar solo
verse
Chourus
Fast Chourus until end
Comments