Guns N Roses - November Rain Chords & Tabs

 

November Rain Chords & Tabs

Guns N Roses Chords & Tabs

Version: 3 Type: Tab 0 ratings
1 star 2 stars 3 stars 4 stars 5 stars
comments

November Rain Tab

   
От: for www.ultimate-guitar.com 
Кому: 
Тема: New Tabs
Дата: 6 июля 2000 г. 21:58

Guns And Roses,November Rain SOLO!.
 Tabbed by Yam Barak,BarakAmsalem@hotmail.com.
  
Tablatured By Yam Barak
e-mail-:
BarakAmsalem@hotmail.com
you won't have any corections, but if you think you have, notify me pleaz.
enjoy!!!
                  
                  November Rain Solo writen By Slash
                 ------------------------------------
FILL I:

 --19---18~---19b---19-18-19-14----14-15~--14h15p14----14----
 -------------------------------15------------------17-------
 ------------------------------------------------------------
 ------------------------------------------------------------
 ------------------------------------------------------------
 ------------------------------------------------------------


play Fill I, then:


 ----14-15-14-15p14------------------14---------------------
 -17----------------17-15-----15-17----17-15-17-14-15-17-15-
 -------------------------16--------------------------------
 -----------------------------------------------------------
 -----------------------------------------------------------
 -----------------------------------------------------------

 ----------------------------------------------------------
 -14-15-14b-r-b-r-----14-15-17-14-15-17--14----------------
 ------------------16------------------------16~~~---------
 ----------------------------------------------------------
 ----------------------------------------------------------
 ----------------------------------------------------------

FILL I again, then:

 ----------14-15-14h15p14-------14-------14--------------------------
 -14-15-17----------------17-15----15-17----17p15-17--15----15-16-17-
 --------------------------------------------------------16----------
 --------------------------------------------------------------------
 --------------------------------------------------------------------
 --------------------------------------------------------------------

 ------------------------------------------------------------
 -14----15-14------------------------------------------------
 ----16-------16-14-16--14p12h14p12h14p12--------------------
 -----------------------------------------11~~~--------------
 ------------------------------------------------------------
 ------------------------------------------------------------
[ Tab from: http://www.guitartabs.cc/tabs/g/guns_n_roses/november_rain_tab_ver_3.html ]
 -19-------18~---19b---19-18----------------------------------
 ------------------------------14b----14----14b----14----17b--
 ----------------------------------------16-----------16------
 -------------------------------------------------------------
 -------------------------------------------------------------
 -------------------------------------------------------------

 ----------19~~-----19-14-19-18-19-14-17-15-17-14-15p14--14-----14--14--14---
 -15---15----------------------------------------------17--15-17--15--15--15-
 ---16-----------------------------------------------------------------------
 ----------------------------------------------------------------------------
 ----------------------------------------------------------------------------
 ----------------------------------------------------------------------------

FILL I then:

 ----14-17b-r-b------14----14-----------------------------------------------
 -17--------------------15----15--------------------------------------------
 -------------------------------16-14-16--16-14-----------------------------
 -----------------------------------------------16-15-14-14-14-12--14-12----
 ------------------------------------------------------------------------14-
 ---------------------------------------------------------------------------

FILL I again...

 ----14-14h15h17-14h15h17-14h15h17p15p14----15----14h15p14----14-
 -17-------------------------------------17----17----------17----
 ----------------------------------------------------------------
 ----------------------------------------------------------------
 ----------------------------------------------------------------
 ----------------------------------------------------------------

 ----------------------------14b---r--------------
 -17b-r--15---17---15-17--15-------------14b---r--
 -----------16------------------------------------
 -------------------------------------------------
 -------------------------------------------------
 -------------------------------------------------

 -19-----18~----19b----19-18---19-14----14-15~---14---------------------------
 ------------------------------------15-------------17-15--17b----r--14br----b
 -----------------------------------------------------------------------------
 -----------------------------------------------------------------------------
 -----------------------------------------------------------------------------
 -----------------------------------------------------------------------------


 
:: Ultimate Guitar Archive :: 
http://www.ultimate-guitar.com 

Comments