Guns N Roses - November Rain Chords & Tabs

 

November Rain Chords & Tabs

Guns N Roses Chords & Tabs

Version: 1 Type: Tab 4 ratings
1 star 2 stars 3 stars 4 stars 5 stars
comments

November Rain Tab

   
Intro, solo & outro for 
NOVEMBER RAIN
Guns n' Roses
(Use your illusion I)


This one is from file midi, so, I'm not sure it
matches... Well, it sounds nice anyway, so you
can use it in your perfomances for your friends. 

I used TableEdit to figure this out (http://www.tabledit.com/)

standard tuning - E A D G B E 	
time - 4/4 (more or less)


INTRO :

 |       |       |       |        |       |       |       |  
|1---------------12-13-----------|5---------------5---7-------8---|
|--------------------------------|6-------6---8-------------------|
|----------------10--------------|5-------------------------------|
|--------------------------------|------------5-------------------|
|--------------------------------|8-------------------------------|
|1-------------------------------|--------------------------------|

 |       |       |       |        |       |       |       |  
|5-------7---5-7-8---7---5-------|5-------1---3---5---3-------1---|
|5-------5-8-----------------8---|6-------3---3---3---3-------3---|
|5-------------------------------|7-------------------------------|
|7---------------7---------------|0-----------------------0-------|
|7---------------7---------------|------------------------5-------|
|0-------------------------------|--------------------------------|

 |       |       |       |        |       |       |       |        
|03------0---1---3---1---0---1---|5-------5-------7-------8-------|
|1-------1---1---1---1---1---1---|6-------6-------6-------6-------|
|--------------------------------|5-------5-------5-------5-------|
|--------------------------------|--------------------------------|
|3-------------------------------|8-----------8-------8-------8---|
|--------------------------------|--------------------------------|

 |       |       |       |        |       |       |       |        
|5---------0-1-3-5---3---1---0---|03------8---3-----------3-------|
|6-------3-----------------------|1-------------------5-------3---|
|7-------------------------------|--------------------------------|
|0-------------------------------|--------------------------------|
|--------------------------------|3---------------3---------------|
|--------------------------------|--------------------------------|

 |       |       |       |        |       |       |       |        
|8---0-------------------0-------|5-----------5-7-8---7---5---7---|
|8-------1-------3---------------|6-------6-8---------------------|
|--------------------------------|5-------------------------------|
|--------------------------------|--------------------------------|
|------------3-------3-------3---|8-------------------------------|
|8-------------------------------|--------------------------------|

 |       |       |       |        |       |       |       |        
|3-------7---5-------------------|5-------1---3---5---3-------1-0-|
|1-------5---5---8---6---5-------|6-------3---3---3---3-------3---|
|----------------------------7---|7-------------------------------|
|2-------------------------------|0-----------------------0-------|
|--------------------------------|------------------------5-------|
|0-------------------------------|--------------------------------|

 |       |       |       |        |       |       |       |        
|0-------8-----------3-----------|--------------------------------|
|1---8---8---5-----------3-------|5-------5-------3-------5-------|
|0-------9---5-------5---5-------|5-------5-------5-------5-------|
|--------10----------------------|--------------------------------|
|3---------------3-----------3---|----3-------3-------3-------3---|
|--------------------------------|--------------------------------|

 |       |       |       |        |       |       |       |        
|0-------------------------------|5-------5---------------5-------|
|1-------------------------------|5-------5-------5-------5-------|
|0-------0-----------------------|5-------5-------5-------5-------|
|--------------------------------|3-----------3-------3-------2---|
|3-------------------------------|--------------------------------|
|--------------------------------|1-----------1-------1-------0---|

 |       |       |       |        |       |       |       |        
|5-------0-------0-------0-------|0-------0-------1-------1-------|
|5-------5-------5-------5-------|1-------1-------1-------1-------|
|5-------5-------5---------------|0-------0-------0-------0-------|
|0-----------0-------0-------0---|--------------------------------|
|5-----------5-------5-------5---|3-----------3-------3-------3---|
|--------------------------------|--------------------------------|

 |       |       |       |        |       |       |       |        
|0-------------------------------|5-------5-------7-------8-------|
|1-------5-------3---------------|5-------5-------5-------5-------|
|0-------5-------5-------5-------|5-------5-------5-------5-------|
|--------5-------5-------5-------|--------------------------------|
|3-----------3-------3-------3---|8-----------8-------8-------7---|
|--------------------------------|--------------------------------|

 |       |       |       |        |       |       |       |        
|5-------5-------3-------1-------|0-------0-----------0---1-------|
|5-------5-------5-------1-------|1-------1-----------1---1---3---|
|5-------5-------5---------------|0-------0-----------0---0---5---|
|0-----------0-------0-------0---|----------------------------5---|
|5-----------5-------5-----------|3-----------3---3---------------|
|--------------------------------|--------------------------------|

 |       |       |       |        
|0-------0-----------------------|
|1-------1-------3-------1-------|
|0-------0-------5-------0-------|    Verses starts here...
|----------------5---------------|
|3-------------------------------|
|--------------------------------|



ANOTHER VERSION OF INTRO : 

 |       |       |       |        |       |       |       |              
|1-------------1213--------------|5---------------5---7-------8---|
|--------------------------------|5-------6---8-------------------|
|--------------------------------|5-------------------------------|
|--------------------------------|--------------------------------|
| -------------------------------|8-------------------------------|
|1-------------------------------|--------------------------------|

 |       |       |       |        |       |       |       |              
|5-----------5-7-8---7---5-------|5---------------5---------------|
|5-------6-8-----------------8---|5-------6---8-------8-------6---|
|5-------------------------------|5-------------------------------|
|--------------------------------|--------------------------------|
|7-------------------------------|5-----------------------5-------|
|--------------------------------|--------------------------------|

 |       |       |       |        |       |       |       |               
|0-------0---1---3---1---0---1---|5-------5-------7-------8-------|
|1-------------------------------|5-------------------------------|
|0-------------------------------|5-------------------------------|
|--------------------------------|--------------------------------|
|3-------------------------------|8-------------------------------|
|--------------------------------|--------------------------------|

 |       |       |       |        |       |       |       |        
|----------0-1-3-5---3---1---0---|0-------8---3-----------3-------|
|--------3-----------------------|1-------------------5-------3---|
|--------------------------------|0-------------------------------|
|0-------------------------------|--------------------------------|
|--------------------------------|3---------------3---------------|
|--------------------------------|--------------------------------|

 |       |       |       |        |       |       |       |        
|----0-------------------0-------|5-----------5-7-8---7---5---7---|
|--------1-------3---------------|5-------6-8---------------------|
|--------------------------------|5-------------------------------|
|--------------------------------|--------------------------------|
|3-----------3-------3-------3---|8-------------------------------|
|--------------------------------|--------------------------------|

 |       |       |       |        |       |       |       |        
|--------7---5-------------------|5---------------5---------------|
|----------------8---6---5-------|5-------6---8-------8-------6---|
|----------------------------7---|5-------------------------------|
|--------------------------------|--------------------------------|
|7-------------------------------|5-----------------------5-------|
|--------------------------------|--------------------------------|

 |       |       |       |        |       |       |       |        
|0-------8---3-------3-----------|0-------0---------------0-------|
|1-----------------------3-------|1-------1-------3-------1-------|
|0-------------------------------|----------------0---------------|
|--------------------------------|--------------------------------|
|3---------------3-----------3---|----3-------3-------3-------3---|
|--------------------------------|--------------------------------|

 |       |       |       |        |       |       |       |        
|--------------------------------|5-------5-------7-------8-------|
|1-------------------------------|6-------6-------6-------6-------|
|0-------------------------------|5-------5-------5-------5-------|
|--------------------------------|--------------------------------|
|3-------------------------------|8-----------8-------8-------8---|
|--------------------------------|--------------------------------|

 |       |       |       |        |       |       |       |        
|5-------5-------5-------5-------|0-------0-------1-------1-------|
|5-------5-------5-------5-------|1-------1-------1-------1-------|
|5-------5-------5-------5-------|0-------0-----------------------|
|0-------0-------0-------0-------|2-------------------------------|
|--------------------------------|3-------3-----------------------|
|--------------------------------|--------------------------------|

 |       |       |       |        |       |       |       |        
|0-------0-----------------------|5-------5-------7-------8-------|
|1-------1-------3-------1-------|6-------------------------------|
|----------------0-------0-------|5-------5-----------------------|
|--------------------------------|--------------------------------|
|--------------------------------|8-------8-----------------------|
|--------------------------------|--------------------------------|

 |       |       |       |        |       |       |       |        
|5-------5-------5-------1-------|0-------0-----------0---1-------|
|5-------5-------5---------------|1-------1-------------------3---|
|5-------5-------5---------------|0-------0-----------------------|
|0-------0-------0---------------|2-------------------------------|
|----5-------5-------5-------8---|3-------3-------3---------------|
|--------------------------------|--------------------------------|

 |       |       |       |        
|0-------0-----------------------|
|1-------1-------3-------1-------| 
|----------------0-------0-------|    Verses starts here...
|--------------------------------|
|--------------------------------|
|--------------------------------| 




FIRST SOLO (really clear sound) :
bend ,pull over, hammer on all you can..... mess it up!!!  ;)

Fmaj7                            Dm
 |       |       |       |        |       |       |       |        
|5-----------5---5---8-5---------|5---5-------5---5---8-5---3-0-1-|
|--------------8-------------8---|--8-----------8-----------------|
|--------------------------------|--------------------------------|
|--------------------------------|--------------------------------|
|--------------------------------|--------------------------------|
|--------------------------------|--------------------------------|

 C              Fsus2             C           Csus2
 |       |       |       |        |       |       |       |        
|------------8-----------1-0-1---|0-----------------0-3-----------|
|--------------------------------|1-----------3-1-3-----3-----1---|
|--------------------------------|--------------------------------|
|--------------------------------|--------------------------------|
|--------------------------------|--------------------------------|
|--------------------------------|--------------------------------|

Fmaj7                            Dm
 |       |       |       |        |       |       |       |        
|5-----------5---5---8-5---------|5---5-------5---5---8-10----8---|
|--------------8-------------8-6-|--8-----------8-----------------|
|--------------------------------|--------------------------------|
|--------------------------------|--------------------------------|
|--------------------------------|--------------------------------|
|--------------------------------|--------------------------------|

 C                           
 |       |       |       |        |       |       |       |        
|12------------------10-8--108---|8-8-----15------1312--1312--15--|
|------------------------10----10|--------------------13----13----|
|--------------------------------|--------------------------------|
|--------------------------------|--------------------------------|
|--------------------------------|--------------------------------|
|--------------------------------|--------------------------------|

 Dm                               G
 |       |       |       |        |       |       |       |        
|13----------0---1---0-1213--1213|10----------10121315--------1312|
|--------------------------------|--------------------------------|
|--------------------------------|--------------------------------|
|--------------------------------|--------------------------------|
|--------------------------------|--------------------------------|
|--------------------------------|--------------------------------|

 C                           
 |       |       |       |        |       |       |       |        
|13--12------20--------------1919|191717171515151313131212121310--|
|--------------------------------|--------------------------------|
|--------------------------------|--------------------------------|
|--------------------------------|--------------------------------|
|--------------------------------|--------------------------------|
|--------------------------------|--------------------------------|

 Dm                               G
 |       |       |       |        |       |       |       |        
|13----------0---1-130-13108-128-|10128-107-8-7-8-5---7---5-------|
|--------------------------------|------------------8---8---6-8-6-|
|--------------------------------|--------------------------------|
|--------------------------------|--------------------------------|
|--------------------------------|--------------------------------|
|--------------------------------|--------------------------------|

                                               BACK TO VERSES( sometimes.....)
 C                                                    v 
 |       |       |       |        |       |       |       |    
|0-------------8---------------8-|------------0-12----8---10--8---|
|--------5-8-5-----------6-8-5---|--------5-8---------------------|
|--------------------------------|--------------------------------|
|--------------------------------|--------------------------------|
|--------------------------------|--------------------------------|
|--------------------------------|--------------------------------|





HER THE SECOND SOLO GOES :
mess up this one also!!!  
to get in solo use picked up C chord
[ Tab from: http://www.guitartabs.cc/tabs/g/guns_n_roses/november_rain_tab.html ]
                            here it starts
                                  v 
 |       |       |       |        |       |       |       |        
|5-------7-------8-------10------|13----------------------17----20|
|--------------------------------|--------------------------------|
|--------------------------------|--------------------------------|
|--------------------------------|--------------------------------|
|--------------------------------|--------------------------------|
|--------------------------------|--------------------------------| 

 |       |       |       |        |       |       |       |        
|15------------------17----2013--|12----------20------------------|
|--------------------------------|--------------------------------|
|--------------------------------|--------------------------------|
|--------------------------------|--------------------------------|
|--------------------------------|--------------------------------|
|--------------------------------|--------------------------------| 

 |       |       |       |        |       |       |       |        
|--------------------13------12--|13------------------101213151713|
|--------------------------------|--------------------------------|
|--------------------------------|--------------------------------|
|--------------------------------|--------------------------------|
|--------------------------------|--------------------------------|
|--------------------------------|--------------------------------| 

 |       |       |       |        |       |       |       |        
|15121315121312--1012108-108-5-8-|158---8-----5-8-158---8---8-5-8-|
|--------------------------------|--------------------------------|
|--------------------------------|--------------------------------|
|--------------------------------|--------------------------------|
|--------------------------------|--------------------------------|
|--------------------------------|--------------------------------| 

 |       |       |       |                
|17--15--131512131213101212--1510|
|--------------------------------|
|--------------------------------|
|--------------------------------|    BACK TO VERSES
|--------------------------------|
|--------------------------------| 




ENDING STARTS HERE :


 |       |       |       |        |       |       |       |        
|0---------------3---------------|1-------------------------------|
|1---------------3---------------|1-------------------------------|
|----------------4---------------|2-------------------------------|
|--------------------------------|--------------------------------|
|0-------0-----------------------|--------------------------------|
|----------------3-------3-------|1-------1-------1---1-------1---|

 |       |       |       |        |       |       |       |        
|3-------------------------------|----------------3---------------|
|3-------------------------------|1---------------3---------------|
|4-------------------------------|0-------------------------------|
|--------------------------------|--------------------------------|
|--------------------------------|3-------3-------2-------2-------|
|3---3-----3-----3---3---3-3-3---|--------------------------------|

 |       |       |       |        |       |       |       |        
|0---------------3---------------|1-------------------------------|
|1---------------3---------------|1-------------------------------|
|----------------4---------------|2-------------------------------|
|--------------------------------|--------------------------------|
|0-------0-----------------------|--------------------------------|
|----------------3-------3-------|1-------1-------1-------1-------|

 |       |       |       |        |       |       |       |        
|3-------------------------------|0-------------------------------|
|3-----------------------0---1---|1-------------------------------|
|4---------------0---2-----------|0-------------------------------|
|--------------------------------|--------------------------------|
|--------------------------------|3-------------------------------|
|3---3---3---3---3---3---3---3---|--------------------------------|



OUTRO (you should get really evil sound here)
two guitars here


 |       |       |       |        |       |       |       |        
|------------------------3-------|----------------1---1---1-------|
|------------------------1-------|4---4---4-----------------------|
|--------------------------------|1---1---1-------3---3---3-------|
|--------------------------------|--------------------------------|
|--------------------------------|--------------------------------|
|--------------------------------|--------------------------------|
|
|--------------------------------|--------------------------------|
|1-------1---------1---1---------|4-------4-------3---3-4---3-----|
|0-------0---------0---0---------|5-------5-------3---3-3---3-----|
|--------------------------------|--------------------------------|
|3-------3---------3---3---------|----------------1---1-1---1-----|
|--------------------------------|4-------4-----------------------|

 |       |       |       |        |       |       |       |        
|3-----------------------3-------|----------------1---1---1-------|
|1-----------------------1-------|4---4---4-----------------------|
|--------------------------------|1---1---1-------3---3---3-------|
|--------------------------------|--------------------------------|
|--------------------------------|--------------------------------|
|--------------------------------|-------------------------------- 
|
|--------------------------------|--------------------------------|
|1-------1---------1---1---------|4-------4-------3---3-4---3-----|
|0-------0---------0---0---------|5-------5-------3---3-3---3-----|
|--------------------------------|--------------------------------|
|3-------3---------3---3---------|----------------1---1-1---1-----|
|--------------------------------|4-------4-----------------------|

 |       |       |       |        |       |       |       |        
|3-----------------------3-------|----------------1---1---1-------|
|1-----------------------1-------|4---4---4-----------------------|
|--------------------------------|1---1---1-------3---3---3-------|
|--------------------------------|--------------------------------|
|--------------------------------|--------------------------------|
|--------------------------------|-------------------------------- 
|
|--------------------------------|--------------------------------|
|1-------1---------1---1---------|4-------4-------3---3-4---3-----|
|0-------0---------0---0---------|5-------5-------3---3-3---3-----|
|--------------------------------|--------------------------------|
|3-------3---------3---3---------|----------------1---1-1-1-1-----|
|--------------------------------|4-------4-----------------------|

 |       |       |       |        |       |       |       |        
|3-----------------------3-------|----------------1---1---1-------|
|1-----------------------1-------|4---4---4-----------------------|
|--------------------------------|1---1---1-------3---3---3-------|
|--------------------------------|--------------------------------|
|--------------------------------|--------------------------------|
|--------------------------------|-------------------------------- 
|
|--------------------------------|--------------------------------|
|1-------1---------1---1---------|4-------4-------3---3-4---3-----|
|0-------0---------0---0---------|5-------5-------3---3-3---3-----|
|--------------------------------|--------------------------------|
|3-------3---------3---3---------|----------------1---1-1---1-----|
|--------------------------------|4-------4-----------------------|


OUTRO SOLO HERE
(should play this one an octave higher but for acoustic guitar it's good)
two guitars here

 |       |       |       |        |       |       |       |        
|8---------------7-----------8---|10------8---7---8---3-------3---|
|--------------------------------|------------------------4-------|
|--------------------------------|--------------------------------|
|--------------------------------|--------------------------------|
|--------------------------------|--------------------------------|
|--------------------------------|--------------------------------|
|Cm      C5      G                    F               Eb
|--------------------------------|--------------------------------|
|----4---------------0---0-------|--------------------------------|
|----5---5-----------0---0-------|----2---2-----------0---0-------|
|----5---5-----------0---0-------|----3---3-----------1---1-------|
|3---3---3-----------------------|----3---3-----------1---1-------|
|----------------3---3---3-------|----1---1-----------------------|


 |       |       |       |        |       |       |       |        
|4-----------3-3-3-----------1-3-|4-1-1-1-3-------1-1-----1-3-1---|
|--------------------------------|----------4-4-4-----3-4-------4-|
|--------------------------------|--------------------------------|
|--------------------------------|--------------------------------|
|--------------------------------|--------------------------------|
|--------------------------------|--------------------------------|
|    Ab              Bb               C5
|--------------------------------|--------------------------------|
|----1---1-----------3---3-------|--------------------------------|
|----1---1-----------3---3-------|----5---5---5-------5---5-------|
|----1---1-----------3---3-------|----5---5---5-------5---5-------|
|--------------------1---1-------|----3---3---3-------3---3-------|
|----4---4-----------------------|--------------------------------|


 |       |       |       |        |       |       |       |        
|--------------------------------|8---------------7-----------8---|
|3-4-1-4-4---3-3-4-4-1---3-3-1---|--------------------------------|
|----------3---------------------|--------------------------------|
|--------------------------------|--------------------------------|
|--------------------------------|--------------------------------|
|--------------------------------|--------------------------------|
|C                                Cm      C5      G
|--------------------------------|--------------------------------|
|1---1---1---1-------------------|----4---------------0---0-------| Second guitar 
|----0---0---0-------0-----------|----5---5-----------0---0-------| goes on with 
|--------------------------------|----5---5-----------0---0-------| these chords
|3---3---3---3---3---3---3-------|3---3---3-----------------------|
|--------------------------------|----------------3---3---3-------|


 |       |       |       |        |       |       |       |        
|10------8---7---8---3-------3---|4-----------3-3-3-----------1-3-|
|------------------------4-------|--------------------------------|
|--------------------------------|--------------------------------|
|--------------------------------|--------------------------------|
|--------------------------------|--------------------------------|
|--------------------------------|--------------------------------|


 |       |       |       |        |       |       |       |        
|4-1-1-1-3-------1-1-------3-1---|----------------3---------------|
|----------4-4-4-----3-4-3-----4-|3-4-1-4-4---3-3---4-1---4-3-1---|
|--------------------------------|----------3---------------------|
|--------------------------------|--------------------------------|
|--------------------------------|--------------------------------|
|--------------------------------|--------------------------------|


 |       |       |       |        |       |       |       |        
|8---------------7-----------8---|10------8---7---8---3-------3---|
|--------------------------------|------------------------4-------|
|--------------------------------|--------------------------------|
|--------------------------------|--------------------------------|
|--------------------------------|--------------------------------|
|--------------------------------|--------------------------------|


 |       |       |       |        |       |       |       |        
|4-----------3-3-3-----------1-3-|4-1-1-1-3-------1-1-------3-1---|
|--------------------------------|----------4-4-4-----3-4-3-----4-|
|--------------------------------|--------------------------------|
|--------------------------------|--------------------------------|
|--------------------------------|--------------------------------|
|--------------------------------|--------------------------------|


 |       |       |       |        |       |       |       |        
|--------------1-4-4-8---6-6-8---|8---------------7-----------8---|
|3-4-1-4-4---3-------------------|--------------------------------|
|----------3---------------------|--------------------------------|
|--------------------------------|--------------------------------|
|--------------------------------|--------------------------------|
|--------------------------------|--------------------------------|


 |       |       |       |        |       |       |       |        
|10------8---7---8---3-----------|4-----------3-3-3-----------1-3-|
|------------------------4---3---|--------------------------------|
|--------------------------------|--------------------------------|
|--------------------------------|--------------------------------|
|--------------------------------|--------------------------------|
|--------------------------------|--------------------------------|


 |       |       |       |        |       |       |       |        
|4-1-1-1-3-------1-1-------3-1---|----------1-4-1-4-1-----3-------|
|----------4-4-4-----3-4-3-----4-|3-4-1-4-4-----------4-----4-1---|
|--------------------------------|--------------------------------|
|--------------------------------|--------------------------------|
|--------------------------------|--------------------------------|
|--------------------------------|--------------------------------|


 |       |       |       |        |       |       |       |        
|8---------------7-----------8---|10------8---7---8---3-------3---|
|--------------------------------|------------------------4-------|
|--------------------------------|--------------------------------|
|--------------------------------|--------------------------------|
|--------------------------------|--------------------------------|
|--------------------------------|--------------------------------|


 |       |       |       |        |       |       |       |        
|4-----------3-3-3-----------1-3-|4-4-8---------------6-3-3-4-6-10|
|--------------------------------|--------------------------------|
|--------------------------------|--------------------------------|
|--------------------------------|--------------------------------|
|--------------------------------|--------------------------------|
|--------------------------------|--------------------------------|


 |       |       |       |        |       |       |       |        
|8-------------------------------|8---------------7-----------8---|
|--------------------------------|--------------------------------|
|--------------------------------|--------------------------------|
|--------------------------------|--------------------------------|
|--------------------------------|--------------------------------|
|--------------------------------|--------------------------------|


 |       |       |       |        |       |       |       |        
|10------8---7---8---3-------3---|4-----------3-3-3---------------|
|------------------------4-------|----------------------------4---|
|--------------------------------|--------------------------------|
|--------------------------------|--------------------------------|
|--------------------------------|--------------------------------|
|--------------------------------|--------------------------------|

                                        (Should imitate rain here!!! Try to use shower!!! :) )
 |       |       |       |        |       |       |       |        
|--------------------------------|8-------------------------------|
|1-------------------------------|8-------------------------------| E
|0-------------------------------|8-------------------------------| N
|--------------------------------|--------------------------------| D
|3-------------------------------|6-------------------------------|
|--------------------------------|--------------------------------|



Any comments & corrections are VERY welcome
(Excuse my english!!! :) )

Has anyone Jeff Buckley,Nick Drake or Ariel Ramirez full tabs PLEEEEAAAAASE!?!?!?!?!??!??

Andy 
Comments