Guns N Roses - Nightrain Chords & Tabs

 

Nightrain Chords & Tabs

Guns N Roses Chords & Tabs

Version: 5 Type: Tab 0 ratings
1 star 2 stars 3 stars 4 stars 5 stars
comments

Nightrain Tab

   
Artist: GUns N' roses
Song: Nightrain
Album: Appetite for destruction


There wasn't any 100% accurate and/or complete tab of this song
Tune your guitar half step down
And I wrote slash's part on top od Izzy's part...

Guitar Notation Legend:

h : hammer
p : pull off
hb: half bend
fb: full bend
rb: release bend
(): ghost note
/ : slide
~ : vibrato
ph: pinch harmonic
pm: palm mute


Intro:
           SLASH
e|--------------------0------0-0--0-----------------------------|
B|----x-8--8-7p0-7/5--5--3/5-5-3--3/1--1--/3--3/1-1-0-1-0-------|
G|--2-----------------------------------------------------2-0-2-|
D|--2---------------------------------------------------------2-|
A|--0---------------------------------------------------------0-|
E|--------------------------------------------------------------|
 |          IZZY                                                |
e|-----------------------------------1--------------------------|
B|------8--8--7--7-----5----5-5-3-3--1-----8--8-5---3-3-3-------|
G|--2---9--9--7--7-----5----5-5-4-4--2-----7--7-5-5-4-5-4-2-0-2-|
D|--2---7--7--7--7-----5----5-5-5-5-3------5--5-5-5-5-5-5-2-0-2-|
A|--0-0-------------------------------------------------------0-|
E|--------------------------------------------------------------|

Verse:  (slash and izzy)
              pm..       pm...       pm..   pm
e|-------|------------------------------------------------------
B|-------|------------------------------------------------------
G|-----2-|-2-2-----2--2-2------------------2---2--2-2-----2-----
D|-----2-|-2-2-----2--2-2------------------2---2--2-2-----2-----
A|-----0-|-0-0-----0--0-0----3-hb(3)-0-----0---0--0-0-----0-----
E|-0-3---|-----0-3--------0-3----------0-3---3--------0-3-------
               
e|----------------------3--|
B|----------------------2--|
G|-2-2-----2---2-2------3--|
D|-2-2-----2---2-2------0--|
A|-0-0-----0-0-0-0---------|
E|-----0-3---------0-3-----|


End of verse:
                 SLASH                                       pm....
e|----------------------------------------------------------------|
B|---x-8--8-7p0-7/5--5--3/5-5-3--3/1--1--/3--3/1-1-0-1-0----------|
G|-------------------------------------------------------2-0-5555-|
D|-----------------------------------------------------------5555-|
A|-----------------------------------------------------------3333-|
E|----------------------------------------------------------------|
 |                IZZY                                       pm....         |
e|----------------------------------1-----------------------------|
B|-----8--8--7--7-----5----5-5-3-3--1-----8--8-5---3-3-3----------|
G|-----9--9--7--7-----5----5-5-4-4--2-----7--7-5-5-4-5-4-2-0-5555-|
D|-----7--7--7--7-----5----5-5-5-5-3------5--5-5-5-5-5-5-2-0-5555-|
A|---0-------------------------------------------------------3333-|
E|----------------------------------------------------------------|

Chorus: (Slash and Izzy)

e|-------||:---------------------:||
B|-------||:---------------------:||  Repeat this part
G|-----2-||:------------------2--:||    5 times
||-----2-||:------------------2--:||
A|-----0-||:--0-hb3-0-hb3-0---0--:||
E|-0-3---||:----------------3----:||

e|-------------------|---------------|---------------|
B|-------------------|---------------|---------------|
G|-------------------|---------------|-------------2-|this only 
D|-------------------|---------------|-------------2-|  once
A|-0-hb3-0-hb3-0-----|---3-2-3-2-0---|---3-2-3-2---0-|
E|---------------3-1-|-1-----------3-|-3---------3---|

Chorus ending:

e|----------------------------------------|
B|-----------------3----------------------|
G|-----------------2--------pick----------|
D|-----------------0-----------slide------|
A|-0-hb3-0-hb3-0-0------------------------|
E|----------------------------------------|
[ Tab from: http://www.guitartabs.cc/tabs/g/guns_n_roses/nightrain_tab_ver_5.html ]
Solo: Izzy actualy plays to beginning of the solo
    
e|-----------7-7-|------------------------------------|
B|-7---7---7-7-7-|----7--7--77-9--(9)-9-(9)-9-(9)-7-9-|  * bend both note
G|---9---9-------|-9---9--9----9--(9)-9-(9)-9-(9)-7-9-|
D|---fb--fb------|-fb--fb-fb---hb--rb-hb-rb-hb-rb-----|
A|---------------|------------------------------------|
E|---------------|------------------------------------|

e|---------10----9-7-------------------------------|
B|-7-9-7~~-----------10-9-7------------------------|
G|-7-9-7~~------------------9-9--(9)p7-7-9-7-------|
D|----------------------------fb-------------9-7---|
A|-------------------------------------------------|
E|-------------------------------------------------|

e|------------------------------------|
B|------------------------------------|
G|------------------------------------|
D|-9/7-7/6-6/4-4/2-2-0--4--5--6/7-----|
A|----------------------4--5--6/7-----|
E|----------------------2--3--4/5-----|

   Now it's slash who plays the rest of the solo
e|-10-----------------10-(10)-10--------------------9-fb12-fb12-rb(12)-------
B|-10------10-----10--10-(10)-10--10------10-----10--------hb12-rb(12)-10-12-
G|fb9-fb9-fb9-rb9--7-fb9-(-9)fb9-fb9-rb(9)-7/11~-----------------------------
D|---------------------------------------------------------------------------
A|---------------------------------------------------------------------------
E|---------------------------------------------------------------------------
                      p.m.
e|------------------------10-10---------10-hb12-10---------------------------
B|-12-hb(12)p10-----------10-10---------10-hb13-10----------------------fb17-
G|-------------11-11~-11--------12-10h11----------fb12-rb(12)10-12-10-11-0---
D|----------------------12---------------------------------------------------
A|---------------------------------------------------------------------------
E|---------------------------------------------------------------------------

e|14------------------------------------------------------------------------
B|--17-14------------------------------------------7--6/7--7-6/7----7/9--/10
G|-----fb16(16)p14--16p14--------------------------x--x-x--x-x-x----x-x---x-
D|----------------16-----16-14---------------------7--6/7--7-6-7--0-7/9--/11
A|----------------------------16-14/13----12-(12)\--------------------------
E|-------------------------------------x-x----------------------------------

e|------------------------4-5----------------------------------------hold-
B|9--9/7--5~-4/2~------------fb5-rb(5)-2-5---------------------------bend-
G|x--x-x--x--x-x--4-fb(4)------------------fb4-rb(4)p2-4-2-fb4-4p2--------
D|9--9/9--6~-4/2~--------------------------------------------------4-fb2--
A|------------------------------------------------------------------------
E|------------------------------------------------------------------------
                          pm...     pm......  pm           
e|------------------------------------------2-----------0-------------------
B|------------------------------------------2-----------0-------------------
G|rb(2)fb(2)rb(2)~~--(2)\-------7-7-----------------------------------------
D|------------------------------7-7-----------------------------------------
A|------------------------------5-5--------4--4--3-2--2----2-3-2------------
E|------------------------0-1-2-----0-1-2--2--2--1-0--0----0-1-2-(2)-x-2-1-0

e|--0--0-1-2---2-0-2--1-0-------------2------------0--------------2---------
B|--0--0-1-2---2-0-2--1-0-------------2------------0--------------2---------
G|--------------------------------------------------------------------------
D|-----------------------------0--------------------------------------------
A|-----------------------------0--4-4---4-4-3-2--2---2-2-3-2--4-4---4-4-3-2-
E|x-------------------------12\---2-2---2-2-1-0--0---0-0-1-2--2-2---2-2-1-0-

e|-----0-----------slo steady slide--------------------|
B|-----0--------------7/10/14--------------------------|
G|--------------------7/10/14--------------------------|
D|--------x-x-x-x-----7/10/14--------------------------|
A|-2-2----x-x-x-x--------------------------------------|
E|-0-0-------------------------------------------------|


Then you just repeat the verse, chorus..bla bla bla
And for the other solo just improvise on the pentagonic minor A scale
Anyway that what slash does....

Any comment,corrections or wtr e-mail me at  green_baypackers@hotmail.com
Comments