Guns N Roses - My Michelle Chords & Tabs

 

My Michelle Chords & Tabs

Guns N Roses Chords & Tabs

Version: 3 Type: Tab 0 ratings
1 star 2 stars 3 stars 4 stars 5 stars
comments

My Michelle Tab

THIS IS CORRECT.  i bought a song book and added some hammer ons and pulloffs
for easier playing.  this intro is correct, even though i don't think it sounds
as correct as the other one posted.

Repeats 4 times
|----------------------------------------------------------------|
|------2---------------0-------0---------------------------------|
|----2---2-----------2-------2---------2---------------2---------|
|--2-------2---2---2-------4---------4---4-----------4---4-------|
|4-----------4---3-------2---------4-------4---4---4-------4---4-|
|--------------------------------2-----------2---2-----------2---|
				   ^
           			 on the last time of this, I end by vibratoing this note
[ Tab from: http://www.guitartabs.cc/tabs/g/guns_n_roses/my_michelle_tab_ver_3.html ]
Repeats 4 times
|--------------------------------------------------|
|--------------------------------------------------|
|--------------------------------------------------|
|-----------------p-p------------------------------|
|-4----/4-3~~~-2-3^2^0--------h-----------h---p-h--|
|----------------------2-2-2-0^2-5~~~~-5-0^1/2^0^2-|
                      ^
 			on the last time of this, I do a 4 an the A-string and vibrato it

Repeats 4 times 
|----------------------------------------|
|----------------------------------------|
|----------------------------------------|
|-----------h-p-p------------------------|
|-8----8-7-6^7^6^4--------h--4~~~--4--h--|
|------------------6-6-6-4^6---------5^6-|
		   ^
		   on the last time of this, I vibrato an 8 on the A-string

-x-----x-----x---------x----x-----x-----x-----x-----x----x---3---x--------------
-x-----x-----x---------x----x-----x-----x-----x-----x----x---3---x--------------
-7-----9-----4---------6----9-----2-----7-----6-----4----2---4---2--------------
-7-----9-----4---------6----9-----2-----7-----6-----4----2---5---2--------------
-5-----7-----2---------4----7-----0-----5-----4-----2----0---5---0--------------
-x-----x-----x---------x----x-----x-----x-----x-----x----x---3---x--------------
well, well, well, you just canít tell, well, well, well, my michelle.
^^^^^^^^^^^^^^^^^^^^^^^^^^^^^^^^^^^^^^^^^^^^^^^^
everything above repeats itself through the song
Comments