Guns N Roses - My Michelle Chords & Tabs

 

My Michelle Chords & Tabs

Guns N Roses Chords & Tabs

Version: 3 Type: Bass Tab 0 ratings
1 star 2 stars 3 stars 4 stars 5 stars
comments

My Michelle Bass Tab

My Michelle by Guns N Roses
From the album Appetite For Destruction
tabbed by Doug(appetite_for_destruction69@hotmail.com)

Intro
|-6---9-8-6--5---6-5-4--------|
|----------------------4------|
|-----------------------------|
|------------------------0-2~-|

|-4-5-6---9-8-6--5--6-5-4-----|
|-------------------------4~--|
|-----------------------------|
|-----------------------------|

                              3x
|--------------------------------|
|--------------------------------|
|-4---4-4-3--2-0-----------------|
|----------------2-2-0-0-5-0-0-2-|

|------------------|
|------------------|
|-4---4-4-3--2-0~--|
|------------------|

Verse
|--------------------------------|
|--------------------------------|
|-4---4-4-3--2-0-----------------|
|----------------2-2-0-0-5-0-0-2-|

|--------------------------------|
|--------------------------------|
|-4---4-4-3--2-0--4-4-4-5-4--4\--|
|--------------------------------|

|--------------------------------|
|--------------------------------|
|-4---4-4-3--2-0-----------------|
|----------------2-2-0-0-5-0-0-2-|

|------------------------|
|------------------------|
|-4---4-4-3--2-0---------|
|----------------2-2-0-2-|

Chorus
|-----------------------------------|
|-----------------------------------|
|-5-5-7-7-2-2-2---2-4-4-7-7-0-0-0-0-|
|-----------------------------------|

|---------------------------|
|---------------------------|
|-5-5--4-4--2-2-------------|
|---------------5-4-5-----5-|

Post Chorus
|--------------------------------|
|--------------------------------|
|-4---4-4-3--2-0-----------------|
|----------------2-2-0-0-5-0-0-2-|

|------------------|
|------------------|
|-4---4-4-3--2-0~--|
|------------------|

Chorus
|-----------------------------------|
|-----------------------------------|
|-5-5-7-7-2-2-2---2-4-4-7-7-0-0-0-0-|
|-----------------------------------|

|--------------------------------------|
|--------------------------------------|
|-5-5--4-4--2-2------------------------|
|---------------5-4-5--5-5-5-5-5-5-5-5-|

|-----------------------------------|
|-----------------------------------|
|-5-5-7-7-2-2-2---2-4-4-7-7---------|
|---------------------------2-2-2-2-|
[ Tab from: http://www.guitartabs.cc/tabs/g/guns_n_roses/my_michelle_btab_ver_3.html ]
|--------------------------------------|
|--------------------------------------|
|-5-5--4-4--2-2------------------------|
|---------------5-4-5--5-5-5-5-5-5-5-5-|

Bridge
|----------------------------------------|
|-------------------------------------/2-|
|-7-7--5-5--0-0-0-0--2-2-----------------|
|------------------------3-3--0-0-0-0----|

|----------------------------------------1-1-2-2-3-3-|
|------------------------1-1-2-2-3-3-4-4-------------|
|-7-7--5-5--0-0-0-0--2-2-----------------------------|
|----------------------------------------------------|

|----------------------------------------|
|-------------------------------------/2-|
|-7-7--5-5--0-0-0-0--2-2-----------------|
|------------------------3-3--0-0-0-0----|

|------------------------------------------------|
|------------------------------------------------|
|-7--5--0-0-0-0--2-2-2-2-2-2-2-2-2-2-2-2-2-2-2-2-|
|------------------------------------------------|

Post Chorus
|--------------------------------|
|--------------------------------|
|-4---4-4-3--2-0-----------------|
|----------------2-2-0-0-5-0-0-2-|

|------------------|
|--------------4~--|
|-4---4-4-3--2-----|
|------------------|

Solo                             4x
|--------------------------------------|
|----------0---------------------------|
|-2-2-2--2---0-2------------------0-0--|
|----------------3-3-3-3-3-3-3-3-3-----|

Chorus
|-----------------------------------|
|-----------------------------------|
|-5-5-7-7-2-2-2---2-4-4-7-7-0-0-0-0-|
|-----------------------------------|

|--------------------------------------|
|--------------------------------------|
|-5-5--4-4--2-2------------------------|
|---------------5-4-5--5-5-5-5-5-5-5-5-|

|-7-7-7-7-6-6-6-6-4-4-4-4--2-1-2-|
|--------------------------------|
|--------------------------------|
|--------------------------------|

|-2-2-2-2-2-2-2-2-2-2-2-2-2-2-2-2-|
|---------------------------------|
|---------------------------------|
|---------------------------------|

Outro                          3x
|---------------------------------|
|---------------------------------|
|---------------------------3-3-3-|
|-4-5-5-5--4-5-5-5--4-5-5-5-------|

|--------------------------------------|
|--------------------------------------|
|---------------------------3~---------|
|-4-5-5-5--4-5-5-5--4-5-5-5----------5-|
Comments