Guns N Roses - Live And Let Die Chords & Tabs

 

Live And Let Die Chords & Tabs

Guns N Roses Chords & Tabs

Version: 1 Type: Bass Tab 0 ratings
1 star 2 stars 3 stars 4 stars 5 stars
comments

Live And Let Die Bass Tab

Live and let die
Guns N'Roses (Paul & Linda McCartney)
Use your illusion I


Tabbed by:      Adriano G. Bruschi
                http://www.geocities.com/SunsetStrip/Alley/5107


|-------------------------------------------------|
|-------------------------------------------------|
|----1--3--5-----1--3--5-----1--3----5---11-13-14-|
|-2-----------2-----------2--------5--------------|


|-------------------|
|-------------------|
|---2--3-------2--3-|
|-2------2---2------|

|------|
|------|
|-2222-| (repeat many and many times)
|------|


|--------------------------|
|--------------------------|
|-2----2-------4----4--6-7-|
|----2----2-2-----4--------|
[ Tab from: http://www.guitartabs.cc/tabs/g/guns_n_roses/live_and_let_die_btab.html ]
|------|
|------|
|-2222-| (repeat many and many times)
|------|


|-------------------------------------------------|
|-------------------------------------------------|
|----1--3--5-----1--3--5-----1--3----5---11-13-14-|
|-2-----------2-----------2--------5--------------|


|-------------------|
|-------------------|
|---2--3-------2--3-|
|-2------2---2------|

|------|
|------|
|-2222-| (repeat many and many times)
|------|

|-----|
|-----|
|-2/5-|
|-----|

*****************************************************
|    Appetite for tablatures home page              |
|    http://www.geocities.com/SunsetStrip/7317/     |
*****************************************************

Comments