Guns N Roses - Hair Of The Dog Chords & Tabs

 

Hair Of The Dog Chords & Tabs

Guns N Roses Chords & Tabs

Version: 2 Type: Tab 0 ratings
1 star 2 stars 3 stars 4 stars 5 stars
comments

Hair Of The Dog Tab

Hair of the dog
Guns N' Roses
The spaghetti incident?


Intro:
[ Tab from: http://www.guitartabs.cc/tabs/g/guns_n_roses/hair_of_the_dog_tab_ver_2.html ]
|---------------------------------------|
|---------------------------------------|
|---------------------------------------|
|--------------2~~~---5--2-----2--------|
|------------2--------------5-----------|
|--0---3-4------------------------------|

Chorus:

|---------------------------------------|
|---------------------------------------|
|------------------7--9-----------------|
|--2--5--7----2----7--9-----------------|
|--2--5--7----2----5--7-----------------|
|--0--3--5----0-------------------------|

Comments