Guns N Roses - Godfather Theme Chords & Tabs

 

Godfather Theme Chords & Tabs

Guns N Roses Chords & Tabs

Version: 2 Type: Tab 1 rating
1 star 2 stars 3 stars 4 stars 5 stars
comments

Godfather Theme Tab

This is what I’ve made up so far by blended a couple of tabs together. I don’t have the end solo but you can make something up like a pentatonic scale that sounds cool with it. Or just make up something on the spot. It’s probably what Slash did. 

Key:
~~  vibrato
^   bend
/   slide forward


|-----------------------------------------------------------------------------------------------|
|-15-14-16-15-15--------15-14-16-15-15--------15-14-18-15-14-15^-14^------14^------|
|-------------------15~~--------------------14~~------------------------------14^-----14~~|
|-----------------------------------------------------------------------------------------------|
|-----------------------------------------------------------------------------------------------|
|-----------------------------------------------------------------------------------------------| 
[ Tab from: http://www.guitartabs.cc/tabs/g/guns_n_roses/godfather_theme_tab_ver_2.html ]
|------10-13-12-10-13-10-12------------------10-13-12-10-13-10-12------------------------------------------------|
|--10---------------------------11-13-10~--10--------------------------/10-9-8~---8-11-15-15^----------14-15~---|
|-------------------------------------------------------------------------------------------------------14-15------------|
|-------------------------------------------------------------------------------------------------------------------------|
|-------------------------------------------------------------------------------------------------------------------------|
|-------------------------------------------------------------------------------------------------------------------------|

|----------------------------------------------10-10-9-8-12-8----------------------------------------------|
|----------------------------------------------------------------11-10~~-10-13-10-8---8-11-9-10~-------|
|--14-15p14-15^-14-15-14---------------------------------------------------------------------------------|
|-----------------------------15-11-12~---------------------------------------------------------------------|
|-------------------------------------------------------------------------------------------------------------|
|-------------------------------------------------------------------------------------------------------------|

This is the part with the solo. I’m sure u can make one up.

|-----------------------------------------------|
|---------13-11-10---13-11-10--------------|
|------10--------------------------------------|
|--/12------------------------------11-12-----|
|-----------------------------------------------|
|-----------------------------------------------|
Comments