Guns N Roses - Dust N Bones Chords & Tabs

 

Dust N Bones Chords & Tabs

Guns N Roses Chords & Tabs

Version: 1 Type: Bass Tab 0 ratings
1 star 2 stars 3 stars 4 stars 5 stars
comments

Dust N Bones Bass Tab

   
Dust n' Bones - Bass Tab
Use Your Illusion I

Tabbed by Robert Hull

Member of The Bass Tab Archive Tabbing Army
http://www.basstabarchive.com

p = Pull Off
/ = Slide
~ = Let Ring

Tune 1/2 step down (Eb Ab Db Gb)

This is quite an easy song to play, once you get the hang of the rhythm.
What order the parts should be played is shown at the end, and the number of 
times to play
each section is indicated after each piece - no number means play it once.

Intro:
Gb|--------------------------------------------------------------------------------|
Db|--------------------------------------------------------------------------------|
Ab|--------------------------------------------------------------------------------|
Eb|---0~--------------------------------------------------(5)---------(3)------(2)-|
	"He lost his mind today, he left it out back on the highway... on sixty 
five"

The notes shown in brackets are only played by the guitar, they're shown 
just as an
indication - sounds good if the bass plays them too though...


Verse:
Gb|-----------------------------------------------------------------------------|
Db|---------------------------------------------------------------2--2--0-------|
Ab|--------------------------------------------------------------------------2--|
Eb|--0-0--0-2-3p0--0-0--0-2-3p0--0-0--0-2-3p0-----------------------------------|

Gb|-----------------------------------------------------------------------|
Db|-----------------------------------------------------------------------|
Ab|-----------------------------------------------------------------------|
Eb|--0-0--0-2-3p0--0-0--0-2-3p0--0-0--0-2-3p0--0--2--3--4--5-5-5-5--3--2--|

Gb|----------------------------------------------------------------------|
Db|-------------------------------------------------------2--2--0--------|
Ab|-----------------------------------------------------------------2----|
Eb|--0-0--0-2-3p0--0-0--0-2-3p0--0-0--0-2-3p0----------------------------|

Gb|-----------------------------------------------------|
Db|-----------------------------------------------------|
Ab|-----------------------------------------------------|
Eb|--0-0--0-2-3p0--0--2--3--4--5-5-5-5--3--2------------|

[ Tab from: http://www.guitartabs.cc/tabs/g/guns_n_roses/dust_n_bones_btab.html ]
Bridge:
Gb|-------------------------------------------------------|
Db|-------------------------------------------------------|
Ab|---------------------------------5-5-5-5-5-5-5-5-------| x3
Eb|--0-0--0-2-3p0--0-0--0-2-3p0---------------------------|


Solo:
Gb|-------------------------------------|
Db|-------------------------------------|
Ab|-------------------------------------|
Eb|------------------------7-7-7/12-----|
     "...just fuckin' gone!"

Gb|------------------------|
Db|------------------------|
Ab|-------------5-5--------| x8
Eb|--7--7--7--7-----5~-----|


Outro:
Gb|---------------------------------------------------------------------|
Db|-------------------------------------------------------2--2--0-------|
Ab|-----------------------------------------------------------------2---|
Eb|--0-0--0-2-3p0--0-0--0-2-3p0--0-0--0-2-3p0---------------------------|

Gb|-------------------------------------------------------------------------|
Db|-------------------------------------------------------------------------|
Ab|-------------------------------------------------------------------------|
Eb|--0-0--0-2-3p0--0-0--0-2-3p0--0-0--0-2-3p0--0--2--3--4--5-5-5-5--3--2----|

Gb|-----------------------------------|
Db|-----------------------------------|
Ab|-----------------------------------|
Eb|--0-0--0-2-3p0--0--2--3--4---------|

Gb|-----------------------------------------------|
Db|-----------------------------------------------|
Ab|--5-5-5-5--3--2--5-5-5-5--3--2--5-5-5-5--3--2--|
Eb|-----------------------------------------------|

Gb|--------------------------------------------------------------------------------------|
Db|--------------------------------------------------------------------------------------|
Ab|--------------------------------------------------------------------------------------| 
x3
Eb|--0-0--0-2-3p0--0-0--0-2-3p0--0-0--0-2-3p0--0-0--0-2-3p0--0-0--0-2-3p0--0-0--0-2-3p0--|

Gb|-----------------------------------------------------------|
Db|-----------------------------------------------------------|
Ab|--77777777777777777777777777777777-777-7-5----7-7-5--------|
Eb|-------------------------------------------7-5-----7-5-0~--|

Gb|-------------------------------------------|
Db|-------------------------------------------|
Ab|-------------------------------------------|
Eb|---------------------------------------0~--|
     After drum beats and with the guitars


Structure:		Intro
			Verse
			Bridge
			Chorus
			Verse
			Bridge
			Chorus
			Solo
			Outro
Comments