Guns N Roses - Blues Chords & Tabs

 

Blues Chords & Tabs

Guns N Roses Chords & Tabs

Version: 2 Type: Tab

Blues Tab

   
"The Blues"
Guns N' Roses
Chinese Democracy

(Based on a live performance)
     
     
BEGINNING OF RIFF ONE
     G>>C>>>>        G>>>>>>>
eb|--3---7b8-7-----------------|
Bb|--0---------6-7-7-8-8~~~~~--|
Gb|--0-------------------------|
Db|--0-------------------------|
Ab|--2-------------------------|
Eb|--3-------------------------|

eb|--7b8-7---------------------|
Bb|--------6-8-1-0-s8----------|
Gb|----------------------------|
Db|----------------------------|
Ab|----------------------------|
Eb|----------------------------|
END OF RIFF ONE

[ Tab from: http://www.guitartabs.cc/tabs/g/guns_n_roses/blues_tab_ver_2.html ]
BEGINNING OF RIFF TWO
     G>>>>>>>>>>>>>    Am>>>>>>>>>
eb|------3---3-33---|------3---3-33---|
Bb|------3---3-33---|--1-1-3-1-3-33---|
Gb|-----------------|--2-2---2--------|
Db|-----------------|--2-2---2--------|x3
Ab|--2-2---2------2-|-----------------|
Eb|--3-3---3------3-|-----------------|
END OF RIFF TWO


BEGINNING OF RIFF THREE
After that, its a simple C, then F, then C, and then G.
END OF RIFF THREE

BEGINNING OF RIFF FOUR
eB|--3----3----3----3-2-0-3--|
Bb|---3----3---3----3-2-0-3--|
Gb|--------------------------|
Db|--------------------------|
Ab|--------------------------|
Eb|--------------------------|

eB|--3----3----3----3-2-0-5--|
Bb|---3----3---3----3-2-0-5--|
Gb|--------------------------|
Db|--------------------------|
Ab|--------------------------|
Eb|--------------------------|
END OF RIFF FOUR

(SOLO COMING SOON)