Guns N Roses - Aint It Fun Chords & Tabs

 

Aint It Fun Chords & Tabs

Guns N Roses Chords & Tabs

Version: 5 Type: Tab 0 ratings
1 star 2 stars 3 stars 4 stars 5 stars
comments

Aint It Fun Tab

Guns N Roses
Aint It Fun
The Spaghetti Incident?

e--------------------------------5--7p5h7--|
B--------------------3h5--3h5/7------------|
G--------------2-4-4-----------------------|
D----------2h4-----------------------------|
A-2-2-4-5----------------------------------|
E------------------------------------------|

e-----10h12/14--14p12/10h12p10-10-----------|
B--12------------------------------12p10h12-|
G-------------------------------------------|
D-------------------------------------------|
A-------------------------------------------|
E-------------------------------------------|
[ Tab from: http://www.guitartabs.cc/tabs/g/guns_n_roses/aint_it_fun_tab_ver_5.html ]
e----------------------------------------------------|
B--12p10/7-7-----------7h10p7----7-------------------|
G-------------9p7-9p7---------9-----9p7----7/6-------|
D----------------------------------------9------7h9--|
A----------------------------------------------------|
E----------------------------------------------------|

e----------------------------------------------|
B----------------------------------------------|
G----7h9p7-9/11-11p9/7-9p7-9/11-11--9p7-9p7----|
D--9----------------------------------------9--|
A----------------------------------------------|
E----------------------------------------------|

e----------10------------------------------------|
B-------------10----------------------10---------|
G--7h9/11--------7--7h9-7-7-7h9p7-7h9-----9p7----|
D---------------------------------------------9--|
A------------------------------------------------|
E------------------------------------------------|

e------------------------------------------|
B--------10-----7--------------------------|
G----7h9----9p7---9p7-9-9---9p7-7---6------|
D--9----------------------9-------9---8-9--|
A------------------------------------------|
E------------------------------------------|
Comments