Guitar Kidd - Bad Medicine Chords & Tabs

 

Bad Medicine Chords & Tabs

Guitar Kidd Chords & Tabs

Version: 1 Type: Tab 0 ratings
1 star 2 stars 3 stars 4 stars 5 stars
comments

Bad Medicine Tab

e---------------------------------------------------------|
b------14p12------14p12------14p12------14p12------14p12--|
g------14p12------14p12------14p12------14p12------14p12--|
d--14---------14---------14---------14---------14---------|
a---------------------------------------------------------|
e---------------------------------------------------------|
       light PH
e------|-----------------------12-------------------------|
b------|----------15bvvvvvvvvv----15p12-------------------|
g------12vvvvv--------------------------14p12-12h14-------|
d--14-----------------------------------------------16p12-|
a---------------------------------------------------------|
e---------------------------------------------------------|
[ Tab from: http://www.guitartabs.cc/tabs/g/guitar_kidd/bad_medicine_tab.html ]
  PH        PH-----------------------------------|
e-------------------------------------12p14---------------|
b-----------------------12b-13p12-15--------12------------|
g-----------------12h14------------------------14vvvvv\\--|
d-14vvvvv---14p12-------------------------------^---------|
a------------------------------------------------^--------|
e----------------------------------------------^----------|
						dive bomb 	
e------------------------------------------------------------------|
b-----12----15vvvvv--------------15vvvv----------------------------|
g--12----12----------------14h16---------------14h16-------14h16---|
d--------------------14h16---------------14h16-------14h16---------|
a------------------------------------------------------------------|
e------------------------------------------------------------------|

e---------------17bvvvvvvvvvvvvvvv--|
b--15h17----------------------------|
g--------15p12----------------------|
d-----------------------------------|
a-----------------------------------|
e-----------------------------------|
Comments