Guided By Voices - Official Iron Man Rally Song Chords & Tabs

 

Official Iron Man Rally Song Chords & Tabs

Guided By Voices Chords & Tabs

Version: 1 Type: Tab 0 ratings
1 star 2 stars 3 stars 4 stars 5 stars
comments

Official Iron Man Rally Song Tab

   
Guided By Voices
Official Iron Man Rally Song (c) 1996 Matador Records
from the album "Under the Bushes Under the Stars"
Guitar Tab by the Darkhorse 
gambit_thirteen@yahoo.com

Verse:
 C?                      F?
------------------------------------------------------
----------------------------1--------1----------------
----0--------0-----------------0--------0-----0-------
-------0--------0-----0--3--------3--------3----------
-3--------3--------3----------------------------------
------------------------------------------------------

 A?                     [C?. . . . . . . (not 100% right)
------------------------------------------------------
------------------------------------------------------
----0--------0-----------------0-----0--0-------------
-------2--------2-----2-----5--------------0----------
-0--------0--------0-----3--------3-------------------
------------------------------------------------------

 G?                       C?[. . . . . . . . . . . . .
------------------------------------------------------
------------------------------------------------------
----0--------0------------------0--0--------0---------
-------0--------0------0-----5-----------5-----5------
--------------------------3-----------3---------------
-3--------3---------3---------------------------------

[ Tab from: http://www.guitartabs.cc/tabs/g/guided_by_voices/official_iron_man_rally_song_tab.html ]
Prechorus:
 F?                   G5
------------------------------------------------------
------------------------------------------------------
------------------------------------------------------
-------0--------0-------------------------------------
----3--------3-----3--------5-----5--5----------------
-1--------1-----------3--3-----3--------3-------------


Chorus:
 F?                [C?. . . . . .(closer)...
------------------------------------------------------
------------------------------------------------------
----------------------------0-----0--0-----0----------
-------0--------0--------5-----5--------5-------------
----3--------3-----3--3-------------------------------
-1--------1-------------------------------------------

 F?          G?          A? 
------------------------------------------------------
------------------------------------------------------
------------------------------------------------------
-------0-----------0-----------0--------0-----0-------
----3-----3-----5-----5-----7--------7-----7----------
-1-----------3-----------5--------5-------------------

 F?                C5
------------------------------------------------------
------------------------------------------------------
-------------------------5-----5--5-----5-------------
-------0--------0-----5-----5--------5----------------
----3--------3-----3----------------------------------
-1--------1-------------------------------------------

Buildup:

------------------------------------------------------
------------------------------------------------------
------------------------------------------------------
-------0--------0-------------------------------------
----3--------3-----3--------5-----5--5----------------
-1--------1-----------3--3-----3--------3-------------

Comments