Guess Who - These Eyes Chords & Tabs

 

These Eyes Chords & Tabs

Guess Who Chords & Tabs

Version: 3 Type: Bass Tab 0 ratings
1 star 2 stars 3 stars 4 stars 5 stars
comments

These Eyes Bass Tab

   
-------------------------------------------------------------------------------
			     These Eyes - The Guess Who
-------------------------------------------------------------------------------

Tabbed By : Eddie Drake 
e-mail: eddiedrake@hotmail.com

Tuning:Standard
this is a great song i love it.. this way works.. its not exact.. 
its a lil harder and more fun than the original. but if ur good u an do it... 
and if u want to hear it played e-mail me ill play it for you. and s in the 
music means to smack the strings to dampen them with your left hand if your 
a righty and visa versa for the lefty's

intro
G|----5-7-----5--7---------7-5---5h7p5---------------------------------|
D|--57------57----------75------------75-------------------------------|
A|7-------------------5-----------------7-5-3------0-23-5--------------|
E|----------------------------------------------33---------------------|
[ Tab from: http://www.guitartabs.cc/tabs/g/guess_who/these_eyes_btab_ver_3.html ]
verse : repete once
G|----5--7------7-5--7------------5--7-----5-7--------75--7------------------|
D|--57-----5-7-5------75--------57------5-7------5-7-5------7-5--------------|
A|-7--------------------5-7-3--7-------7------------------------7-5-3--3-2---|
E|---------------------------------------------------------------------------|
skip on verse 2
G|--------2---------2-----------2--------2----------2---------5--------------|
D|-------2-2-0-----2-2---------2-2-0----2-2--------2-2-0-----5-5-------------|
A|-00-s-0-----33--3----3-00-s-0-----33-3----3-00s-0-----33-3----3-------3-4-5|
E|----------------------------------------------------------------33333------|
Chorus 1
G|-------------------------------------------------------------------------|
D|-------------------------------------------------------------------------|
A|-------3---------3--------33-33-3---------33-33-3-3/5---------5---------5|
E|11-11-1---11-11-1--11-11-1--------11-11-1--------------33-33-3---33-33-3-|

G|--------------------------------------------------------------------------|
D|--------------------------------------------------------------------------|
A|-------55-55-5-------55-55-5-5/7---------7--------7---------77-77-7-------|
E|33-33-3-------33-33-3-------------55-55-5--55-55-5---55-55-5-------55-55-5|

G|-----------------------------------|
D|-----------------------------------|
A|77-77-7---------77-77-7/9---------5|
E|--------55-55-5------------20\-----|
Chours 2
G|-5--5--------5--5-------3--5----------------5--5---------------------------|
D|3--3--3h5---3--3--3h5--3--3--3h5--5--5-----3--3--3h5--5--5-------5-7-------|
A|---------3-----------3-----------3--3--3h5-----------3--3--3h5--5----------|
E|---------------------------------------------------------------------------|
do this sept' move up 2 frets with the music.. u'll hear it...this looks hard and is 
but it sounds so cool... remember e-mail me if u wanna hear it played...
eddiedrake@hotmail.com


| /  slide up
| \  slide down
| h  hammer-on
| p  pull-off
| ~  vibrato
| +  harmonic
| x  Mute note

===============================================================================
Comments