Guess Who - Shakin All Over Chords & Tabs

 

Shakin All Over Chords & Tabs

Guess Who Chords & Tabs

Version: 1 Type: Tab 0 ratings
1 star 2 stars 3 stars 4 stars 5 stars
comments

Shakin All Over Tab

   
  This is what I could make of this.  I know the chorus isn't right, but it 
sounds OK.  If anyone would like to tab the chorus out, that would be great.
Any comments or corrections can be directed to my e-mail address.  Thanks.
  -S-squared
This song was written by Johnny Kidd of the Pirates in 1960 and covered by
The Guess Who in 1965.  This tab is The Guess Who version.



                     Shakin' All Over - The Guess Who

Tabbed by: S-squared
Email: ssquared@ssimicro.com

Tuning: Standard

e|-3p0--------------------------------3p0--------------------------------|
B|----3-0--------------------------------3-0-----------------------------|
G|-------2-0--------------------------------2-0--------------------------|
D|----------2-0-2------------------------------2-0-2---------------------|
A|-----------------------------------------------------------------------|
E|-----------------------------------------------------------------------|


   pm                   pm                   pm                   pm
e|-12-12-10-10-7-10-12--12-12-10-10-7-10-12--12-12-10-10-7-10-12--12-12--|
B|-----------------------------------------------------------------------|
G|-----------------------------------------------------------------------|
D|-----------------------------------------------------------------------|
A|-----------------------------------------------------------------------|
E|-----------------------------------------------------------------------|
                                             When you move in right so

                                  pm                   pm
e|-10-10-7-10-12--3p0-------------12-12-10-10-7-10-12--12-12-10-10-7-10--|
B|-------------------3-0-------------------------------------------------|
G|----------------------2-0----------------------------------------------|
D|-------------------------2-0-2-----------------------------------------|
A|-----------------------------------------------------------------------|
E|----------------------------------------------------- -----------------|
   close to me,                                        That's when I get

       pm                                   pm
e|-12--12-12-10-10-7-10-12--3p0-------------12-12-10-10-7-10-12----------|
B|-----------------------------3-0---------------------------------------|
G|--------------------------------2-0------------------------------------|
D|-----------------------------------2-0-2-------------------------------|
A|-----------------------------------------------------------------------|
E|-----------------------------------------------------------------------|
   the chills all over me.
[ Tab from: http://www.guitartabs.cc/tabs/g/guess_who/shakin_all_over_tab.html ]
   E                                              A
e|------------------------------/5--/5-3-0-------------------------------|
B|------------------------------/5--/5-3-0-------------------------------|
G|-1~--------------------------------------------------------------------|
D|-2~--------------------------------------------------------------------|
A|-2~--------------------------------------------------------------------|
E|-----------------------------------------------------------------------|
       Quivers down my backbone,        I got the shakes in my thighbone,

                           E
e|-7b~--7b~--5--3-------------------------------/5-/5-3-0-3-0------------|
B|-5b~--5b~--5--3-------------------------------/5-/5-3-0-3-0------------|
G|-----------------------------------------------------------------------|
D|-----------------------------------------------------------------------|
A|-----------------------------------------------------------------------|
E|-----------------------------------------------------------------------|
                I got the shivers in my kneebone,           Shakin' all

                       pm
e|------3p0------------12-12-10-10-7-10-12--3p0--------------------------|
B|---------3-0---------------------------------3-0-----------------------|
G|------------2-0---------------------------------2-0--------------------|
D|---------------2-0-2-------------------------------2-0-2---------------|
A|-----------------------------------------------------------------------|
E|-----------------------------------------------------------------------|
   over.

  I PREFER TO PLAY THE BASS LINE INSTEAD OF THE LEAD LINE - Ssquared
  From end of chorus:
  

e|-3p0----------------------3p0------------------------------------------|
B|----3-0----------------------3-0---------------------------------------|
G|-------2-0----------------------2-0------------------------------------|
D|----------2-0---2-2-0-0------------2-0---2-2-0-0-------2-2-0-0---------|
A|-----------------------2-2----------------------2-2-----------2-2------|
E|-------------0-0----------------------0-0-----------0-0----------------|


e|-------------------------------------3p0-------------------------------|
B|----------------------------------------3-0----------------------------|
G|-------------------------------------------2-0-------------------------|
D|-----2-2-0-0---------2-2-0-0------------------2-0-----2-2-0-0----------|
A|-------------2-2-------------2-2------------------------------2-2------|
E|-0-0-------------0-0------------------------------0-0------------------|
   Just the way you say goodnight to me,

                                        E
e|-----------------------------------------------------------------------|
B|-----------------------------------------------------------------------|
G|--------------------------------------1~-------------------------------|
D|-----2-2-0-0---------2-2-0-0----------2~-------------------------------|
A|-------------2-2-------------2-2------2~-------------------------------|
E|-0-0-------------0-0---------------------------------------------------|
   Brings the feelin' out inside of me.   CHORUS



| /  slide up
| \  slide down
| h  hammer-on
| p  pull-off
| ~  vibrato
| +  harmonic
| x  Mute note
===============================================================================
Comments