Guess Who - No Sugar Tonight Chords & Tabs

 

No Sugar Tonight Chords & Tabs

Guess Who Chords & Tabs

Version: 1 Type: Tab

No Sugar Tonight Tab

   
-------------------------------------------------------------------------------
			     NO SUGAR TONIGHT - Guess Who
-------------------------------------------------------------------------------
Tabbed by:Mastermind

Tuning: Standard (eBGDAE)
| /  slide up
| \  slide down
| h  hammer-on
| p  pull-off
| ~  vibrato
| +  harmonic
| x  Mute note

I haven't gotten around to the New Mother Nature part quite yet, but I have the basic 
of the No Sugar Tonight part. Here it is:

Guitar 1 (Acoustic)

e|--------------2--5--4---------------------|
B|-------------------------------2--5--4----|
G|------------------------------------------|  (Play twice before Guitar 2 Joins, then 
multiple times with Guitar 2 before chords)
D|--------0---------------------------------|
A|--2--4---------------------0---------2----|
E|--------------------0---------------------|

Guitar 2 (Clean Electric)
[ Tab from: http://www.guitartabs.cc/tabs/g/guess_who/no_sugar_tonight_tab.html ]
e|---------0--2-----0-----4~------5--7--9--5-----|
B|------3--------3-----0----------------------7~-| (Play roughly 4 times, then once more 
down the tempo to lead into the chords)
G|-----------------------------------------------|
D|-----------------------------------------------|
A|-----------------------------------------------|
E|-----------------------------------------------|

Guitar 1 & 2 (Clean)

Chords for song:

      E        D        A
e|----0--------2--------0---| Strum pattern I find to be down down up down for each chord.
B|----0--------3--------2---| (Play pattern twice for E,once for D and A)
G|----1--------2--------2---|
D|----2--------0--------2---|
A|----2--------x--------0---|
E|----0--------x--------x---|

Pre-Chorus/Interlude

Guitar 1

e|--------------------|
B|--------------------|
G|--------------------|
D|--2--0--------------|
A|--------2--0-----0--|
E|--------------3-----|
(After the last open A, go into the chords for the chorus)

Chorus:
Guitar 1 & 2
E E, D D, A A, E E <- Play each chord once for each time written here.

(Repeat as many times as necessary, then play Interlude and go back into verse)

When finished all Verses and Choruses, play the Intro again (Both Guitar Parts at once 
before) and then play New Mother Nature, which I have yet to figure out. Enjoy.

==================================================================================