Gucci Mane - Lemonade Chords & Tabs

 

Lemonade Chords & Tabs

Gucci Mane Chords & Tabs

Version: 2 Type: Bass Tab

Lemonade Bass Tab

Lemonade - Gucci Mane
Tabbed from...
Orange Juice - OFWGKTA

Standard Tuning  

Intro
0:14
G|--------------------|-------------------|
D|--------------------|------------5--7/8-|
A|--------------------|----------5--------|
E|--3--3-3------------|--3--3-3-----------|

|--------------------|-------------------------------|
|--------------------|--3h5-----------8p7--3h5-------|
|--------------------|--------------5-----------5p3--|
|--3--3-3------------|------3--3-3-------------------|
                                     1 4 3  1 3  2 1

Verse
:27                                                                       
|-----------------|-----------------|----------------|---------------------|
|-----------------|-----------------|----------------|---------------------|
|-----------------|-----------------|----------------|-------------3-3-3-3-|
|--3--3--4--3~~/2-|-3--3--4~~3--2h4-|-3--3--4--3~~/2-|-3--3--4--3----------|

|-----------------|-----------------|----------------|---------------------|
|-----------------|-----------------|----------------|---------------------|
|-3h5-------------|-----------------|----------------|---------------------|
|-----3--4--3~~/2-|--3--3--4~~3--2h4|-3--3--4--3~~/2-|-3--3--4-------------|
[ Tab from: http://www.guitartabs.cc/tabs/g/gucci_mane/lemonade_btab_ver_2.html ]
|-----------------|-----------------|----------------|---------------------|
|-----------------|-----------------|----------------|---------------------|
|-3h5-------------|-----------------|----------------|---------------------|
|-----3--4--3~~/2-|--3--3--4--------|-3--3--4--3~~/2-|-3--3--4-------------|

Chorus
1:07
|-----------------|-----------------|-----------------|-----------------|
|-----------------|-----------------|-----------------|-----------------|
|-----------------|-3-3-3-3-3-3-3-3-|-----------------|-3-3-3-3-3-3-3h5-|
|-3-3-3-3-3-3-3-3-|-----------------|-3-3-3-3-3-3-3-3-|-----------------|

|-----------------|-----------------|-----------------|-----------------|
|-3h5-5-5-5-5-3h5-|-----------------|-5-5-5-5-5-5-3h5-|-----------------|
|-----------------|-3-3-3-3-3-3-3-3-|-----------------|-3-3-3-3-3-3-3h5-|
|-----------------|-----------------|-----------------|-----------------|

|-----------------|-----------------|-----------------|-----------------|
|-----------------|-----------------|-----------------|-----------------|
|-----------------|-3-3-3-3-3-3-3-3-|-----------------|-3-3-3-3-3-3-3h5-|
|-3-3-3-3-3-3-3-3-|-----------------|-3-3-3-3-3-3-3-3-|-----------------|

|-----------------|-----------------|-----------------|-----------------|
|-3h5-5-5-5-5-3h5-|-----------------|-3h5-5-5-5-5-3h5-|-----------------|
|-----------------|-3-3-3-3-3-3-3-3-|-----------------|-3-3-3-3-3-3-3h5-|
|-----------------|-----------------|-----------------|-----------------|

Verse

Chorus