Guano Apes - You Cant Stop Me Chords & Tabs

 

You Cant Stop Me Chords & Tabs

Guano Apes Chords & Tabs

Version: 1 Type: Tab 0 ratings
1 star 2 stars 3 stars 4 stars 5 stars
comments

You Cant Stop Me Tab

   
Band - Guano Apes		
Song - You Can't Stop Me

Tuning: Drop Db (Db, Ab, Db, Gb, Bb, Eb)
Key:
/ or \	slide up or down
  s	stop; rest
  x	palm muted

Intro:
|-------------------------|
|-------------------------|
|-------------------------|
|-------------------------|
|-------------------------|
|-0-3-5-3-5-3-0-3-5-3-5-3-|

|-------------------------|
|-------------------------|
|-------------------------|
|-------------------------|
|-0-3-5-3-5-3-0-3-5-3-5-3-|
|-0-3-5-3-5-3-0-3-5-3-5-3-|


Verses:
|-------------------------|
|-------------------------|
|-------------------------|
|-------------------------|
|-------------------------|
|-0-3-5-3-5-3-0-3-5-3-5-3-|
  x x x x x x x x x x x x


Chorus:
|-----------------------------------------------------------------|
|-----------------------------------------------------------------|
|-7-7-7-7-7-7-7-7-7-7-7-7-7-7-7-7----------------1010101010101010-|
|-7-7-7-7-7-7-7-7-7-7-7-7-7-7-7-7-8-8-8-8-8-8-8-81010101010101010-|
|-5-5-5-5-5-5-5-5-5-5-5-5-5-5-5-5-8-8-8-8-8-8-8-8-8-8-8-8-7-7-7-7-|
|-0-0-0-0-0-0-0-0-0-0-0-0-0-0-0-0-8-8-8-8-8-8-8-8-----------------|
[ Tab from: http://www.guitartabs.cc/tabs/g/guano_apes/you_cant_stop_me_tab.html ]
|-----------------------------------------------------------------------------|
|-----------------------------------------------------------------------------|
|---------------------------------14-14-14-14-12-12-12-12-10-10-10-10-9-9-9-9-|
|-7-7-7-7-5/7-7-7-5/7-7-7-5/7-7-7--x--x--x--x--x--x--x--x--x--x--x--x-x-x-x-x-|
|-5-5-5-5-3/5-5-5-3/5-5-5-3/5-5-5-12-12-12-12-10-10-10-10--8--8--8--8-7-7-7-7-|
|-----------------------------------------------------------------------------|


Bridge:
|-----------------------------------------------|
|-----------------------------------------------|
|-----------------------------------------------|
|-----------------------------------------------|
|-5-3-5-3---5-3-5-3---0-3---5-3-5-3---5-3-5-3---|
|-5-3-5-3---5-3-5-3---0-3---5-3-5-3---5-3-5-3---|
        s         s     s         s         s
  x x x x   x x x x   x x   x x x x   x x x x


|---------------------------------|
|---------------------------------|
|---------------------------------|
|-----------------3---------------|
|-0---------------1---------------|
|-0-------------------------------|


|-------------------||-------------------------|
|-------------------||-------------------------|
|----10-12-10-12-10-||-12-14-12-14-12-14-12-14-|
|-12----------------||-------------------------|
|-------------------||-------------------------|
|-------------------||-------------------------|

End.
Comments