Guano Apes - We Use The Pain Chords & Tabs

 

We Use The Pain Chords & Tabs

Guano Apes Chords & Tabs

Version: 1 Type: Bass Tab 0 ratings
1 star 2 stars 3 stars 4 stars 5 stars
comments

We Use The Pain Bass Tab

Bass tab

Artist: Guano apes
Song: We use the pain
Album: Proud like a god
Tabbed by: Robert van der Poel

This is the first time I tabbed a song so there could be mistakes in it.
Send corrections or commends to: Nisi_nirvana@hotmail.com.
This song has a really cool bass line.

Intro/Verse:

G [[--------------------------]]
D [[-----------------12-13----]]
A [[------7-13-12-------------]]
E [[-6-7----------------------]]
B [[--------------------------]]

Bridge 1:

G [[--------]]
D [[--------]]
A [[------7-]]  
E [[-6-7----]]
B [[--------]]

Chorus:

G [[--------------]]
D [[--------------]]
A [[--------------]]
E [[-3--5--3------]]
B [[------------3-]]

Bridge 2 (part 1):
[ Tab from: http://www.guitartabs.cc/tabs/g/guano_apes/we_use_the_pain_btab.html ]
G [[---------------]]
D [[---------------]]
A [[---------------]]
E [[-5-5---7h9p7h9-]]
B [[---------------]]

(part 2):

     /1,3,4,5,7\           /2,5,8\
G [[---------------------]----------]]
D [[---------------------]----------]]
A [[---------------------]----------]]
E [[-5-5---7h9p7h9-]-5555---7h9p7h9-]]
B [[---------------------]----------]]

Structure:

Intro/Verse:       27 times
Bridge 1:           1 time
Chorus:             8 times
Intro/Verse:       15 times
Bridge 1:           1 time
Chorus:             8 times
Bridge 2 (part 1): 12 times
         (part 2):  1 time
Chorus:             8 times

The Intro/Verse is fingered, it takes some getting used to but it's really cool.
There is no outro, the song ends right after the last chorus line.
Maybe I've counted some bits wrong, but if you listen to the song you should be able to figure it out.
Have fun!


Comments