Guano Apes - Suzie Chords & Tabs

 

Suzie Chords & Tabs

Guano Apes Chords & Tabs

Version: 1 Type: Bass Tab 0 ratings
1 star 2 stars 3 stars 4 stars 5 stars
comments

Suzie Bass Tab

   
Band - Guano Apes		
Song - Suzie

Tuning: Standart (E A D G)
Key:
/ - slide down
~ - let ring
x - dead note
L - Left Hand Tap
R - Right Hand Tap

Intro:
  L L R R  R  R  L R  L   R
G|------------14---14--------|
D|----x-14-14-------------14~|
A|---------------------------| x4
E|9-8~-----------9----8\-----|

[ Tab from: http://www.guitartabs.cc/tabs/g/guano_apes/suzie_btab.html ]
Verse:
  L L R R  R  R    R  L R R  R  R    R    L R R  R  R  L  R  L  R  L  R  L  R
G|------------14---14-----------14---14-------------14-13-14-13-14-13-14-13-14-|
D|----x-14-14-----------x-14-14-------------x-14-14----------------------------|
A|-----------------------------------------------------------------------------|
E|9-8\----------------8\------------------8\-----------------------------------|


Chorus:  
  L+R L+R L+R L+R L+R L+R L+R L+R
G|-------------------------------|
D|10--11--10--11--10--11--10--11-|
A|10--11--10--11--10--11--10--11-|
E|8---9---8---9---8---9---8---9--|


Intrlude:
G|------------|------------|------------|------------|
D|------------|------------|------------|------------|
A|------------|------------|------------|------------|
E|8-8--9-8----|8-8--9-8----|8-8--9-8----|8-8--9-8----|

  L L R  R  L R  L R  L  L L R  R  L R  L R  L
G|----------------------|----------------------|
D|-------10---10---10---|-------10---10---10---|
A|----10-10---10---10---|----10-10---10---10---| x12
E|8-8-------3----9----6-|8-8-------3----9----6-|

End.
Comments