Guano Apes - Sing That Song Chords & Tabs

 

Sing That Song Chords & Tabs

Guano Apes Chords & Tabs

Version: 1 Type: Bass Tab 0 ratings
1 star 2 stars 3 stars 4 stars 5 stars
comments

Sing That Song Bass Tab

   
Band - Guano Apes		
Song - Sing That Song

Tuning: E A D G

p - Pull off
h - hammer

Intro/Verse:
E|----------------------|
A|-7--------6-----------| 
D|-9-9------8-8-----6---| x3
G|-9-9-7h9--8-8-6h8-----|
       p        p   p
    1 2 3               4
E|-----------------||-----------------|
A|-7--------6--4---||-7-----6-4--4r---|
D|-9-9------8--6---||-9-----8-6-------|
G|-9-9-7h9--8--6---||-9-7h9-8-6-------|
     p 
Play this all 4 times.

Chorus:
E|-44444444--5-4-5-66810---5-4-5-66810---|
A|---------------------------------------|
D|---------------------------------------|
G|---------------------------------------|

Verse:
E|----------------------|
A|-7--------6-----------|
D|-9-9------8-8-----6---| x3
G|-9-9-7h9--8-8-6h8-----|
       p        p   p
    1 2 3               4
E|-----------------||-----------------|
A|-7--------6--4---||-7-----6-4--4r---|
D|-9-9------8--6---||-9-----8-6-------|
G|-9-9-7h9--8--6---||-9-7h9-8-6-------|
     p 
Play this all 2 times.
[ Tab from: http://www.guitartabs.cc/tabs/g/guano_apes/sing_that_song_btab.html ]
Chorus:
E|-44444444--5-4-5-66810---5-4-5-66810---|
A|---------------------------------------|
D|---------------------------------------|
G|---------------------------------------|

Afther Chorus:
E|-55555555-44444444-55555555-6666881010---|
A|-----------------------------------------|
D|-----------------------------------------| x3
G|-----------------------------------------|

E|-55555555-44444444-55555555-6-8-10-------|
A|-----------------------------------------|
D|-----------------------------------------|
G|-----------------------------------------|

Intro/ Verse 1x

E|------------------|
A|-7------6---------|
D|-9------8-----6---| x3
G|-9-7h9--8-6h8-----|
     p      p   p

E|--------44444444--5----5--444444---|
A|-7---------------------------------|
D|-9---------------------------------|
G|-9-7h9-----------------------------|
     p

Bridge:
E|-5555-5-55--4444-4-44-5555-5-55-6666881010---|
A|---------------------------------------------|
D|---------------------------------------------| x2
G|---------------------------------------------|

E|-55555555-44444444-55555555-6666771010---|
A|-----------------------------------------|
D|-----------------------------------------| x4
G|-----------------------------------------|

End:
E|-5-4-5--6-8-10---|
A|-----------------|
D|-----------------|
G|-----------------|
Comments