Guano Apes - Rain Chords & Tabs

 

Rain Chords & Tabs

Guano Apes Chords & Tabs

Version: 1 Type: Tab 0 ratings
1 star 2 stars 3 stars 4 stars 5 stars
comments

Rain Tab

Band - Guano Apes		
Song - Rain

Tuning: standard EADGBE

				    (Guitar 1)
e|--------------------------------------------------------------------------------|
B|---5-----5------------------------------------1---------------------1-----------|
G|---6-----6---x-x-6----------------------2-----2----x-x-2------------2--x-x-2----|
D|---7-----7---x-x-7----7----9--10--------3-----3----x-x-3------3-----3--x-x-3----|
A|---7---------x-x-7----7----9--10--------3----------x-x-3------3--------x-x-3----|
E|---5---------x-x-5----5----7---8---0----1----------x-x-1----0-1--------x-x-1----|

				    (Guitar 2)
e|--------------------------------------------------------------------------------|
B|--------------------------------------------------------------------------------|
G|-------------12-----------------------------------------------------------------|
D|--------10------------9-10----------------------------------------7-------------|
A|---12-------------12--------7--8----------8-7-8-7-8--------7h8p7----------------|
E|--------------------------------------------------------------------------------|

Chorus:
e|--------------------------------------------------------------------------------|
B|--------------------------------------------------------------------------------|
G|---------------------------------------10-10-----10---10-10------10-------------|
D|---7---9--10--5---4---2---7---9--10----10-10-x-x-10---10-10-x-x--10-------------|
A|---7---9--10--5---4---2---7---9--10----8---8-x-x--8----8--8-x-x--8--------------|
E|---5---7---8--3---2---0---5---7---8----8---8-x-x--8----8--8-x-x--8--------------|
[ Tab from: http://www.guitartabs.cc/tabs/g/guano_apes/rain_tab.html ]
Lead riff at the end:
e|--------------------------------------------------------------------------------|
B|--------------------------------||----------------------------------------------|
G|---------------14-----14--------||----------16------------17------------19------|
D|-------14-------14----------14--||------16---16------17---17--19------19--------|
A|---12---12-------12-----12------||-/14------------/15---------------17----------|
E|------------12------------------||-/14--------------------------/17-------------|

e|--------------------------------------------------------------------------------|
B|--------------------------------------------------------------------------------|
G|---------17------------10----------10-------------------------------------------|
D|-------17--17-------------10------------10----10--------------------------------|
A|---15------------8--8---------8-------8-----8------7/8--------------------------|
E|---0-------------8--------------------------------------------------------------|

Lyrics:

I'm alone
can't wait until I feel your rain
so unreal
can't find another place of your rain
I believe
I still believe in your warm rain
I'm alone
can't sleep until I feel your rain

How can I find
Love, Faith and Trust inside of your rain
so unreal, can't find another place of your rain
I believe
I still believe in your warm rain
so untrue
help me to find through your warm rain
I send out my wishes
you gave me promises
why don't you feel the same
(I'm sad, I feel like a little child
somebody left, there is no rain)
Oh no, I'm waiting
how about your rain?
I can't believe
I still believe in your rain
like in heaven
I can't wait until I feel your rain
so where's your life
who's living the rest of your life

I can't, I can't,
I can't live this life, I can't live this life
I can't see in your eyes
can't change it, no more tries
leave everyone with a smile
and you're sad, you feel like a little child
somebody's left there is no rain
I send out my wishes ...

End.
Comments