Guano Apes - Pretty In Scarlett Chords & Tabs

 

Pretty In Scarlett Chords & Tabs

Guano Apes Chords & Tabs

Version: 2 Type: Tab 0 ratings
1 star 2 stars 3 stars 4 stars 5 stars
comments

Pretty In Scarlett Tab

Band - Guano Apes		
Song - Pretty In Scarlett

Tuning: Standard

Intro:
e|-11---9-----------------11---9-----12-11------|
B|----9-------12----9--------9-------------12---|
G|---------------11-----------------------------|
D|----------------------------------------------|
A|----------------------------------------------|
E|----------------------------------------------|


Verse:
e|-9-9-9-9-9-9---9-9-9-9-9-9---9-9-9-9-9-9---7--7-7-7-7--|
B|-9-9-9-9-9-9---9-9-9-9-9-9---9-9-9-9-9-9---7--7-7-7-7--|
G|-9-9-9-9-9-9---9-9-9-9-9-9---9-9-9-9-9-9---------------|
D|-------------------------------------------------------|
A|-------------------------------------------------------|
E|-------------------------------------------------------|


Prechorus:
 |- - - - - 3x - - - - - - - - |
e|-4--4-4-4--5--5-5-5-5-5-5-5--|-7--7-7-7-7--7-7-7-7--|
B|-4--4-4-4--5--5-5-5-5-5-5-5--|-7--7-7-7-7--7-7-7-7--|
G|-----------------------------|----------------------|
D|-----------------------------|----------------------|
A|-----------------------------|----------------------|
E|-----------------------------|----------------------|

 |- - - - - 3x - - - - - - - - |
e|-4--4-4-4--5--5-5-5-5-5-5-5--|------------------------------------|
B|-4--4-4-4--5--5-5-5-5-5-5-5--|------------------------------------|
G|-----------------------------|------------------------------------|
D|-----------------------------|-1111111111111111-1111111111111111--|
A|-----------------------------|-1111111111111111-1111111111111111--|
E|-----------------------------|--9-9-9-9-9-9-9-9--9-9-9-9-9-9-9-9--|


Chorus:
 |- - - - 3x - - - - - - -|
e|------------------------|---------------------------|
B|------------------------|---------------------------|
G|------------------------|---------------------------|
D|-11-1111--7--7-7-7-7-7--|--9---9-x-x--9---9-x-x-9---|
A|-11-1111--7--7-7-7-7-7--|--9---9-x-x--9---9-x-x-9---|
E|--9--9-9--5--5-5-5-5-5--|--7---7-x-x--7---7-x-x-7---|

[ Tab from: http://www.guitartabs.cc/tabs/g/guano_apes/pretty_in_scarlett_tab_ver_2.html ]
After 1st chorus:
e|---------------------------------------------------------------|
B|-9-8h9p8h9p8------9p8h9p8------------9p8h9p8h9p8------/9--9-9--|
G|-------------11-----------11---9h11--------------11---/9--9-9--|
D|---------------------------------------------------------------|
A|---------------------------------------------------------------|
E|---------------------------------------------------------------|


Verse

Pre-chorus

Chorus


After 2nd chorus:
e|-11---9-----------------11---9-----12-11------|
B|----9-------12----9--------9-------------12---|
G|---------------11-----------------------------|
D|----------------------------------------------|
A|----------------------------------------------|
E|----------------------------------------------|

e|------------------------------------------------------------------|
B|-9-8h9p8h9p8------9p8h9p8------------9p8h9p8h9p8------------------|
G|-------------11-----------11---9h11--------------11----6-------4--|
D|-------------------------------------------------------6---7---4--|
A|-------------------------------------------------------4---7---2--|
E|-------------------------------------------------------4---5---2--|
                                                        | distortion on

Chorus


Outro:
 |- - - - - - 3x - - - - - - - - - - |
e|-----------------------------------|-----------------------------------|
B|-----------------------------------|-----------------------------------|
G|-6-6-6-6-6-6-6-6-------------------|-4-4-4-4-4-4-4-4--4-4-4-4-4-4-4-4--|
D|-6-6-6-6-6-6-6-6--7-7-7-7-7-7-7-7--|-4-4-4-4-4-4-4-4--4-4-4-4-4-4-4-4--|
A|-4-4-4-4-4-4-4-4--7-7-7-7-7-7-7-7--|-2-2-2-2-2-2-2-2--2-2-2-2-2-2-2-2--|
E|-4-4-4-4-4-4-4-4--5-5-5-5-5-5-5-5--|-2-2-2-2-2-2-2-2--2-2-2-2-2-2-2-2--|

 |- - - - - - 3x - - - - - - - - - - |
e|-----------------------------------|-------------|
B|-----------------------------------|-------------|
G|-6-6-6-6-6-6-6-6-------------------|-6-------4---|
D|-6-6-6-6-6-6-6-6--7-7-7-7-7-7-7-7--|-6---7---4---|
A|-4-4-4-4-4-4-4-4--7-7-7-7-7-7-7-7--|-4---7---2---|
E|-4-4-4-4-4-4-4-4--5-5-5-5-5-5-5-5--|-4---5---2---|

End.
Comments