Guano Apes - Open Your Eyes Chords & Tabs

 

Open Your Eyes Chords & Tabs

Guano Apes Chords & Tabs

Version: 5 Type: Bass Tab 0 ratings
1 star 2 stars 3 stars 4 stars 5 stars
comments

Open Your Eyes Bass Tab

Guano Apes - Open Your Eyes

This is it! It's rather straighforward, the riff sounds wicked. It's really what's played though.

INTRO/CHORUS:
G||------------------------|
D||*----------------------*|  play 4x
A||*-7\---2-2-/3-3-5-5-h7-*|
E||-----0------------------|

VERSE/INTERLUDE (Slap/Pop):
G|--------------------------|
D|*-------2h3--------------*| play 3 times, then:
A|*------------------------*|
E|-0--x-x-----0-0--x-x-1----|
[ Tab from: http://www.guitartabs.cc/tabs/g/guano_apes/open_your_eyes_btab_ver_5.html ]
G|--------------------0-------0--|
D|--------2h3--------------------|
A|------------x-x-2/3-----3/4----| <- You can also use hammer-ons here,
E|-0--x-x------------------------|    I like sliding more though.


last time (before the CHORUS):
G|----------------|------..
D|----------------|------..
A|----------3-----|------..
E|-0(stop)-----2--|-0--0-..

CHORUS
INTERLUDE
VERSE

CHORUS

BRIDGE: this is a bit useless too follow on tab, so just think of the two notes and a 
formation(*) repeated for 7.5 bars.
G|-------------------...-------|----..
D|---*---------------...-------|----..
A|-/----\------------...-3-----|----..
E|-0-0---0-0---0-0---...----2--|-0--..

CHORUS (2x)
OUTRO:
G|-----------------||
D|-----------------||
A|-----------------||
E|-0-0---0-0---0-0-||
Comments