Guano Apes - Open Your Eyes Chords & Tabs

 

Open Your Eyes Chords & Tabs

Guano Apes Chords & Tabs

Version: 3 Type: Bass Tab 0 ratings
1 star 2 stars 3 stars 4 stars 5 stars
comments

Open Your Eyes Bass Tab

   
Artist: Guano apes
Song: Open Your Eyes
Tabbed By: an apes shit

Standard E,A,D,G

h= hammer on  p= Popped(play hard)

|-----@--|
|------| repeat this 
|-@--@-|
|--------|

[ Tab from: http://www.guitartabs.cc/tabs/g/guano_apes/open_your_eyes_btab_ver_3.html ]
Intro/Chorus
  q q. E E E   q q. E E E
|----|------------|------------|
|-8:-|------------|------0-0h2-|
|-8:-|------2-2h3-|-3-3--------|
|----|-0-0--------|------------|

Verse
   e  s s e.s s s s s s e.   e  s s e.s s s e s e.
|--------------------------|----------------------|
|--------2---------------|--------2-------3---3-|
|------------------------|----------------------|
|--0--0-0---0-0-0-0-0-0-1--|-0--0-0---0-0-0---0---|


Good song, good music, good grup, good singeg... but the name is a shit!!
Comments