Guano Apes - Money And Milk Chords & Tabs

 

Money And Milk Chords & Tabs

Guano Apes Chords & Tabs

Version: 1 Type: Bass Tab 0 ratings
1 star 2 stars 3 stars 4 stars 5 stars
comments

Money And Milk Bass Tab

   
Band - Guano Apes		
Song - Money and Milk

Tuning: Standart (E A D G)

Verse 1:
G|--------|--------|--------|--------|
D|3--3--3-|3--3--3-|--------|-55-55-5|
A|-44-44-4|-44-44-4|-33-33-3|3--3--3-| x7
E|--------|--------|1--1--1-|--------|


Chorus 1:
G|--------|--------|--------|--------|
D|--------|--------|--------|--------|
A|--------|--------|33333333|44444444| x2
E|11111111|22222222|--------|--------|


Verse 2:
G|--------|--------|--------|--------|
D|3--3--3-|3--3--3-|--------|-55-55-5|
A|-44-44-4|-44-44-4|-33-33-3|3--3--3-| x4
E|--------|--------|1--1--1-|--------|

G|--------|--------|--------|--------|
D|3--3--3-|3--3--3-|--------|--REST--|
A|-44-44-4|-44-44-4|-33-33-3|--------|
E|--------|--------|1--1--1-|--------|

[ Tab from: http://www.guitartabs.cc/tabs/g/guano_apes/money_and_milk_btab.html ]
Chorus 2:
G|--------|--------|--------|--------|
D|--------|--------|--------|--------|
A|--------|--------|33333333|44444444| x2
E|11111111|22222222|--------|--------|

G|--------|--------|--------|--------|
D|33333333|44444444|--------|--------|
A|--------|--------|33333333|44444444|
E|--------|--------|--------|--------|

G|--------|--------|--------|--------|
D|--------|--------|--------|--------|
A|--------|--------|--------|--------|
E|44444444|66666666|88888888|88888888|


Interlude:
G|--------| |--------|5555----|
D|--REST--| |--------|--------|
A|--------| |4-------|----3333|
E|--------| |--------|--------|


Chorus 3 -> Chorus 2


Outro:
G|--------|--------|--------|
D|3--3--3-|3--3--3-|3--3--3-|
A|-44-44-4|-44-44-4|-44-44-4|
E|--------|--------|--------|

G|--------|--------|--------|--------|--------|
D|3--3--3-|3--3--3-|3--3--3-|3--3--3-|3--3--3-|
A|-44-44--|-44-44--|-44-44--|-44-44--|-44-44--|
E|--------|--------|--------|--------|--------|

End.
Comments