Guano Apes - Mine All Mine Chords & Tabs

 

Mine All Mine Chords & Tabs

Guano Apes Chords & Tabs

Version: 1 Type: Tab 0 ratings
1 star 2 stars 3 stars 4 stars 5 stars
comments

Mine All Mine Tab

Guano Apes - Mine All Mine - Don`t Give Me Names

Tabbed by Elvisz(elvisz@kornkids.com)

Intro:(Guitar1)
|------------33------|
|-----------3--3-----|
|----------4----4----|
|---------5------5---|
|--------5--------5--|
|-3~~~--3----------3-|

Pre-Verse:
(Guitar1)
|-3333x-3333x-3333x-4444x-4444x-4444x-1111x-x--------4444x-4444x-4444x-|
|-3333x-3333x-3333x-4444x-4444x-4444x-1111x-3~-------4444x-4444x-4444x-|
|-4444x-4444x-4444x-5555x-5555x-5555x-2222x-3~-2245x-5555x-5555x-5555x-|
|-5555x-5555x-5555x-6666x-6666x-6666x-3333x-3~-3356x-6666x-6666x-6666x-|
|-5555x-5555x-5555x-6666x-6666x-6666x-3333x-1~-3356x-6666x-6666x-6666x-|
|-3333x-3333x-3333x-4444x-4444x-4444x-1111x----1134x-4444x-4444x-4444x-|

|-3333x-3333x-3333x-4444x-4444x-4444x-1111x-x--------4~-444~-4~-444~-|
|-3333x-3333x-3333x-4444x-4444x-4444x-1111x-3~-------4~-444~-4~-444~-|
|-4444x-4444x-4444x-5555x-5555x-5555x-2222x-3~-2245x-5~-555~-5~-555~-|
|-5555x-5555x-5555x-6666x-6666x-6666x-3333x-3~-3356x-6~-666~-6~-666~-|
|-5555x-5555x-5555x-6666x-6666x-6666x-3333x-1~-3356x-6~-666~-6~-666~-|
|-3333x-3333x-3333x-4444x-4444x-4444x-1111x----1134x-4~-444~-4~-444~-|

(Guitar2 with distorion)
|----------------------------------------------------------------------|
|----------------------------------------------------------------------|
|-------------------------------------------3~-------------------------|
|-5555x-5555x-5555x-6666x-6666x-6666x-3333x-3~-3356x-6666x-6666x-6666x-|
|-5555x-5555x-5555x-6666x-6666x-6666x-3333x-1~-3356x-6666x-6666x-6666x-|
|-3333x-3333x-3333x-4444x-4444x-4444x-1111x----1134x-4444x-4444x-4444x-|

|--------------------------------------------------------------------|
|--------------------------------------------------------------------|
|-------------------------------------------3~-----------------------|
|-5555x-5555x-5555x-6666x-6666x-6666x-3333x-3~-3356x-6~-666~-6~-666~-|
|-5555x-5555x-5555x-6666x-6666x-6666x-3333x-1~-3356x-6~-666~-6~-666~-|
|-3333x-3333x-3333x-4444x-4444x-4444x-1111x----1134x-4~-444~-4~-444~-|

Verse:
(Guitar2)
|------------------------------|
|------------------------------|
|------------------------------|
|-------10~~----10-----9~~---9-|
|---10~-----10--10---9----9--9-|
|-8~---8-------8---7~-7----7---|

(Guitar1)
|-3--3--3--3--3--4--4--4--4--4---|
|--4--4--4--4--4--4--4--4--4--4--|
|---5--5--5--5--5--5--5--5--5--5-|	
|--------------------------------|
|--------------------------------|
|--------------------------------|

Fill1:(Guitar2)
|------|
|------|
|------|
|-3~~~-|
|-3~~~-|
|-1~~~-|

Chorus:
(Guitar1)
|-3333x-3333x-3333x-4444x-4444x-4444x-1111x-x--------4444x-4444x-4444x-|
|-3333x-3333x-3333x-4444x-4444x-4444x-1111x-3~-------4444x-4444x-4444x-|
|-4444x-4444x-4444x-5555x-5555x-5555x-2222x-3~-2245x-5555x-5555x-5555x-|
|-5555x-5555x-5555x-6666x-6666x-6666x-3333x-3~-3356x-6666x-6666x-6666x-|
|-5555x-5555x-5555x-6666x-6666x-6666x-3333x-1~-3356x-6666x-6666x-6666x-|
|-3333x-3333x-3333x-4444x-4444x-4444x-1111x----1134x-4444x-4444x-4444x-|

|-3333x-3333x-3333x-4444x-4444x-4444x-1111x-x--------4~-444~-4~-444~-|
|-3333x-3333x-3333x-4444x-4444x-4444x-1111x-3~-------4~-444~-4~-444~-|
|-4444x-4444x-4444x-5555x-5555x-5555x-2222x-3~-2245x-5~-555~-5~-555~-|
|-5555x-5555x-5555x-6666x-6666x-6666x-3333x-3~-3356x-6~-666~-6~-666~-|
|-5555x-5555x-5555x-6666x-6666x-6666x-3333x-1~-3356x-6~-666~-6~-666~-|
|-3333x-3333x-3333x-4444x-4444x-4444x-1111x----1134x-4~-444~-4~-444~-|

(Guitar2 with distorion)
|----------------------------------------------------------------------|
|----------------------------------------------------------------------|
|-------------------------------------------3~-------------------------|
|-5555x-5555x-5555x-6666x-6666x-6666x-3333x-3~-3356x-6666x-6666x-6666x-|
|-5555x-5555x-5555x-6666x-6666x-6666x-3333x-1~-3356x-6666x-6666x-6666x-|
|-3333x-3333x-3333x-4444x-4444x-4444x-1111x----1134x-4444x-4444x-4444x-|

|--------------------------------------------------------------------|
|--------------------------------------------------------------------|
|-------------------------------------------3~-----------------------|
|-5555x-5555x-5555x-6666x-6666x-6666x-3333x-3~-3356x-6~-666~-6~-666~-|
|-5555x-5555x-5555x-6666x-6666x-6666x-3333x-1~-3356x-6~-666~-6~-666~-|
|-3333x-3333x-3333x-4444x-4444x-4444x-1111x----1134x-4~-444~-4~-444~-|
[ Tab from: http://www.guitartabs.cc/tabs/g/guano_apes/mine_all_mine_tab.html ]
Verse:
(Guitar2)
|------------------------------|
|------------------------------|
|------------------------------|
|-------10~~----10-----9~~---9-|
|---10~-----10--10---9----9--9-|
|-8~---8-------8---7~-7----7---|

(Guitar1)
|-3--3--3--3--3--4--4--4--4--4---|
|--4--4--4--4--4--4--4--4--4--4--|
|---5--5--5--5--5--5--5--5--5--5-|	
|--------------------------------|
|--------------------------------|
|--------------------------------|

Chorus:
(Guitar1)
|-3333x-3333x-3333x-4444x-4444x-4444x-1111x-x--------4444x-4444x-4444x-|
|-3333x-3333x-3333x-4444x-4444x-4444x-1111x-3~-------4444x-4444x-4444x-|
|-4444x-4444x-4444x-5555x-5555x-5555x-2222x-3~-2245x-5555x-5555x-5555x-|
|-5555x-5555x-5555x-6666x-6666x-6666x-3333x-3~-3356x-6666x-6666x-6666x-|
|-5555x-5555x-5555x-6666x-6666x-6666x-3333x-1~-3356x-6666x-6666x-6666x-|
|-3333x-3333x-3333x-4444x-4444x-4444x-1111x----1134x-4444x-4444x-4444x-|

|-3333x-3333x-3333x-4444x-4444x-4444x-1111x-x--------4~-444~-4~-444~-|
|-3333x-3333x-3333x-4444x-4444x-4444x-1111x-3~-------4~-444~-4~-444~-|
|-4444x-4444x-4444x-5555x-5555x-5555x-2222x-3~-2245x-5~-555~-5~-555~-|
|-5555x-5555x-5555x-6666x-6666x-6666x-3333x-3~-3356x-6~-666~-6~-666~-|
|-5555x-5555x-5555x-6666x-6666x-6666x-3333x-1~-3356x-6~-666~-6~-666~-|
|-3333x-3333x-3333x-4444x-4444x-4444x-1111x----1134x-4~-444~-4~-444~-|

(Guitar2 with distorion)
|----------------------------------------------------------------------|
|----------------------------------------------------------------------|
|-------------------------------------------3~-------------------------|
|-5555x-5555x-5555x-6666x-6666x-6666x-3333x-3~-3356x-6666x-6666x-6666x-|
|-5555x-5555x-5555x-6666x-6666x-6666x-3333x-1~-3356x-6666x-6666x-6666x-|
|-3333x-3333x-3333x-4444x-4444x-4444x-1111x----1134x-4444x-4444x-4444x-|

|--------------------------------------------------------------------|
|--------------------------------------------------------------------|
|-------------------------------------------3~-----------------------|
|-5555x-5555x-5555x-6666x-6666x-6666x-3333x-3~-3356x-6~-666~-6~-666~-|
|-5555x-5555x-5555x-6666x-6666x-6666x-3333x-1~-3356x-6~-666~-6~-666~-|
|-3333x-3333x-3333x-4444x-4444x-4444x-1111x----1134x-4~-444~-4~-444~-|

Bridge1:
(Guitar1)
|------------------------------------------|
|------------------------------------------|
|-8--8--8--8--8--8--9--9--9--9--9--9--9985-|
|--10-10-10-10-10-10-10-10-10-10-10-10-----|
|------------------------------------------|
|------------------------------------------|

Fill1:(Guitar2)
|------|
|------|
|------|
|-5~~~-|
|-5~~~-|
|-3~~~-|

Bride2:
(Guitar2)
|------------------------|
|------------------------|
|------------------------|
|------<14>-----<14><13>-|
|-<12>------<12>---------|
|------------------------|

Chorus:
(Guitar1)
|-3333x-3333x-3333x-4444x-4444x-4444x-1111x-x--------4444x-4444x-4444x-|
|-3333x-3333x-3333x-4444x-4444x-4444x-1111x-3~-------4444x-4444x-4444x-|
|-4444x-4444x-4444x-5555x-5555x-5555x-2222x-3~-2245x-5555x-5555x-5555x-|
|-5555x-5555x-5555x-6666x-6666x-6666x-3333x-3~-3356x-6666x-6666x-6666x-|
|-5555x-5555x-5555x-6666x-6666x-6666x-3333x-1~-3356x-6666x-6666x-6666x-|
|-3333x-3333x-3333x-4444x-4444x-4444x-1111x----1134x-4444x-4444x-4444x-|

|-3333x-3333x-3333x-4444x-4444x-4444x-1111x-x--------4~-444~-4~-444~-|
|-3333x-3333x-3333x-4444x-4444x-4444x-1111x-3~-------4~-444~-4~-444~-|
|-4444x-4444x-4444x-5555x-5555x-5555x-2222x-3~-2245x-5~-555~-5~-555~-|
|-5555x-5555x-5555x-6666x-6666x-6666x-3333x-3~-3356x-6~-666~-6~-666~-|
|-5555x-5555x-5555x-6666x-6666x-6666x-3333x-1~-3356x-6~-666~-6~-666~-|
|-3333x-3333x-3333x-4444x-4444x-4444x-1111x----1134x-4~-444~-4~-444~-|

(Guitar2 with distorion)
|----------------------------------------------------------------------|
|----------------------------------------------------------------------|
|-------------------------------------------3~-------------------------|
|-5555x-5555x-5555x-6666x-6666x-6666x-3333x-3~-3356x-6666x-6666x-6666x-|
|-5555x-5555x-5555x-6666x-6666x-6666x-3333x-1~-3356x-6666x-6666x-6666x-|
|-3333x-3333x-3333x-4444x-4444x-4444x-1111x----1134x-4444x-4444x-4444x-|

|--------------------------------------------------------------------|
|--------------------------------------------------------------------|
|-------------------------------------------3~-----------------------|
|-5555x-5555x-5555x-6666x-6666x-6666x-3333x-3~-3356x-6~-666~-6~-666~-|
|-5555x-5555x-5555x-6666x-6666x-6666x-3333x-1~-3356x-6~-666~-6~-666~-|
|-3333x-3333x-3333x-4444x-4444x-4444x-1111x----1134x-4~-444~-4~-444~-|
Comments