Guano Apes - Mine All Mine Chords & Tabs

 

Mine All Mine Chords & Tabs

Guano Apes Chords & Tabs

Version: 1 Type: Bass Tab 0 ratings
1 star 2 stars 3 stars 4 stars 5 stars
comments

Mine All Mine Bass Tab

   
Band - Guano Apes		
Song - Mine all mine

Tuning: 5-String Standart (B E A D G)
Key:
/ - slide up
x - dead note
~ - let ring

Intro:
G|------------------------------------------------------------------|
D|------------------------------------------------------------------|
A|--------------------------------------3---------------------------|
E|33333-33333-333-44444-44444-444-11111----------6--44444-44444-444-|
B|-----------------------------------------4-x-4--------------------|

G|----------------------------------------------------------------------|
D|----------------------------------------------------------------------|
A|--------------------------------------3-------------------------------|
E|33333-33333-333-44444-44444-444-11111----------6--4--4-4~---4--4-4~---|
B|-----------------------------------------4-x-4------------------------|


Verse:
G|------------------------------------------------------------|
D|--------10--------------11---------------10--------------9~-|
A|3-/(10)----10\-3-2-/(11)---11----3-/(10)----10\-3-2-/(9)----|
E|-------------------------------4----------------------------|
B|------------------------------------------------------------|

G|-----------------------------------------------------------8h9p8--|
D|--------10--------------11---------------10--------------9------9-|
A|3-/(10)----10\-3-2-/(11)---11----3-/(10)----10\-3-2-/(9)----------|
E|-------------------------------4----------------------------------|
B|------------------------------------------------------------------|

G|-------------------------------------------------------|
D|--------10--------------11---------------10------------|
A|3-/(10)----10\-3-2-/(11)---11----3-/(10)----10\-3-2~---|
E|-------------------------------4-----------------------|
B|-------------------------------------------------------|


Chorus:
G|------------------------------------------------------------------|
D|------------------------------------------------------------------|
A|--------------------------------------3---------------------------|
E|33333-33333-333-44444-44444-444-11111----------6--44444-44444-444-|
B|-----------------------------------------4-x-4--------------------|

G|------------------------------------------------------------|
D|------------------------------------------------------------|
A|--------------------------------------3---------------------|
E|33333-33333-333-44444-44444-444-11111----------6--4--4-4~---|
B|-----------------------------------------4-x-4--------------|

[ Tab from: http://www.guitartabs.cc/tabs/g/guano_apes/mine_all_mine_btab.html ]
Verse:
G|----------------------------------------------------------------|
D|--------10--------------11---------------10--------------9------|
A|3-/(10)----10\-3-2-/(11)---11----3-/(10)----10\-3-2-/(9)--------|
E|-------------------------------4----------------------------7-7-|
B|----------------------------------------------------------------|

G|-----------------------------------------------------------8h9p8--|
D|--------10--------------11---------------10--------------9------9-|
A|3-/(10)----10\-3-2-/(11)---11----3-/(10)----10\-3-2-/(9)----------|
E|-------------------------------4----------------------------------|
B|------------------------------------------------------------------|

G|-------------------------------------------------------|
D|--------10--------------11---------------10------------|
A|3-/(10)----10\-3-2-/(11)---11----3-/(10)----10\-3-2~---|
E|-------------------------------4-----------------------|
B|-------------------------------------------------------|


Chorus:
G|------------------------------------------------------------------|
D|------------------------------------------------------------------|
A|--------------------------------------3---------------------------| x2
E|33333-33333-333-44444-44444-444-11111----------6--44444-44444-444-|
B|-----------------------------------------4-x-4--------------------|

G|----------------------------------------------------------------------|
D|----------------------------------------------------------------------|
A|--------------------------------------3-------------------------------|
E|33333-33333-333-44444-44444-444-11111----------6--4--4-4~---4--4-4~---|
B|-----------------------------------------4-x-4------------------------|


Interlude:
G|-----------------------------------------------------------|
D|-----------------------------------------------------------|
A|----3~-----2~-----3~-----2~-3----------2~-3----------------|
E|--3------2------3------2------3------2------3--------------|
B|1------0------1------0----------1~-0----------1~-0~---0~---|

G|------|------|------|------|------|------|------|------|
D|------|------|------|------|------|------|------|------|
A|------|------|------|------|------|------|------|------|
E|------|------|------|------|------|------|------|------|
B|0-----|0-----|0-----|0-----|0-----|0-----|0-----|4-----|


Chorus:
G|------------------------------------------------------------------|
D|------------------------------------------------------------------|
A|--------------------------------------3---------------------------| x3
E|33333-33333-333-44444-44444-444-11111----------6--44444-44444-444-|
B|-----------------------------------------4-x-4--------------------|

G|-------------------------------------------------------------------------------------|
D|-------------------------------------------------------------------------------------|
A|--------------------------------------3----------------------------------------------|
E|33333-33333-333-44444-44444-444-11111----------6--4~---4~---4~---4~---4--4-4~---4~---|
B|-----------------------------------------4-x-4---------------------------------------|

End.
Comments