Guano Apes - Lords Of The Boards Chords & Tabs

 

Lords Of The Boards Chords & Tabs

Guano Apes Chords & Tabs

Version: 2 Type: Tab 0 ratings
1 star 2 stars 3 stars 4 stars 5 stars
comments

Lords Of The Boards Tab

   
Band - Guano Apes		
Song - Lords Of The Boards

All Guitars in normal tuning (E A D G B E)

P.M. - Palm Mute for as long as the dots go

 Guitar 2:
|-2-2-2-2-2-2-2-2-2-2-2-2-2-2-2-2-2-2-2-2-2-2-2-2-0-0-0-0-0-0-0-0-|
|-----------------------------------------------------------------|
|-----------------------------------------------------------------|
|-----------------------------------------------------------------|
|-----------------------------------------------------------------|
|-----------------------------------------------------------------|

|-2-2-2-2-2-2-2-2-2-2-2-2-2-2-2-2-2-2-2-2-2-2-2-2-5-5-5-5-5-5-5-5-|
|-----------------------------------------------------------------|
|-----------------------------------------------------------------|
|-----------------------------------------------------------------|
|-----------------------------------------------------------------|
|-----------------------------------------------------------------|

|-2-2-2-2-2-2-2-2-2-2-2-2-2-2-2-2-2-2-2-2-2-2-2-2-0-0-0-0-0-0-0-0-|
|-----------------------------------------------------------------|
|-----------------------------------------------------------------|
|-----------------------------------------------------------------|
|-----------------------------------------------------------------|
|-----------------------------------------------------------------|

 Guitar 1:
|-------------------------------------------|
|-------------------------------------------|
|-------------------------------------------|
|-------------------------------------------|
|-----------------------------------5----4--|
|---------------------------------0-3--0-2--|
|
|Guitar 2:
|-2-2-2-2-2-2-2-2-2-2-2-2-2-2-2-2-----------|
|-------------------------------------------|
|-------------------------------------------|
|-------------------------------------------|
|-------------------------------------------|
|-------------------------------------------|

  Both Guitars:
||----------------------------------|--------------------------------|
||o---------------------------------|--------------------------------|
||----------------------------------|--------------------------------|
||----------------------------------|--------------------------------|
||o-4-2-4-------4-2-4-2-4---4-2-4---|-4-2-4-------4-2-4-2-4---4-5----|
||--2-0-2-------2-0-2-0-2---2-0-2---|-2-0-2-------2-0-2-0-2---2-3----|

|---------------------------------|----------------------------||------|
|---------------------------------|---------------------------o||------|
|---------------------------------|----------------------------||------|
|---------------------------------|----------------------------||------|
|-4-2-4-------4-2-4-2-4---4-2-4---|-4-2-4-------4-2---5----4--o||------|
|-2-0-2-------2-0-2-0-2---2-0-2---|-2-0-2-------2-0-0-3--0-2---||-4----|

||------------||-----------------||-------------------||------------------|
||o----------o||-----------------||o-----------------o||------------------|
||------------||---------4-------||----------4--------||---------4--------|
||------------||-----8-------8---||------8-------8----||-----8-------8----|
||o----------o||---6---6---6---6-||o---6---6---6---6-o||---6---6---6---6--|
||------------||-4---------------||--4----------------||-4----------------|
                       
||----------------------||
||o--------------------o||
||----------4-----------||
||------8-------8-------||
||o---6---6---6---6----o||
||--4-------------------||
	  (x3)

 Guitar 1:
|-----------------------------------------------------------------|
|-----------------------------------------------------------------|
|-----------------------------------------------------------------|
|-----------------------------------------------------------------|
|-2-------2-------2-------2-------2-------2-------0-------0-------|
|-----------------------------------------------------------------|
|
|
|Guitar 2:
|-2-2-2-2-2-2-2-2-2-2-2-2-2-2-2-2-2-2-2-2-2-2-2-2-0-0-0-0-0-0-0-0-|
|-----------------------------------------------------------------|
|-----------------------------------------------------------------|
|-----------------------------------------------------------------|
|-----------------------------------------------------------------|
|-----------------------------------------------------------------|
		(3x)
                         
||-------------------------------------------------------------------||
||o-----------------------------------------------------------------o||
||-------------------------------------------------------------------||
||-------------------------------------------------------------------||
||o-2-------2-------2-------2-------2-------2-------0-------0-------o||
||-------------------------------------------------------------------||
		(3x)

||--2-2-2-2-2-2-2-2-2-2-2-2-2-2-2-2-2-2-2-2-2-2-2-2-0-0-0-0-0-0-0-0--||
||o-----------------------------------------------------------------o||
||-------------------------------------------------------------------||
||-------------------------------------------------------------------||
||o-----------------------------------------------------------------o||
||-------------------------------------------------------------------||



|-----------------------------------------------------------------|
|-----------------------------------------------------------------|
|-----------------------------------------------------------------|
|-0-------0-------0-------0-------0-------0-----------------------|
|-------------------------------------------------0-------0-------|
|-----------------------------------------------------------------|
|
|
|-2-2-2-2-2-2-2-2-2-2-2-2-2-2-2-2-2-2-2-2-2-2-2-2-0-0-0-0-0-0-0-0-|
|-----------------------------------------------------------------|
|-----------------------------------------------------------------|
|-----------------------------------------------------------------|
|-----------------------------------------------------------------|
|-----------------------------------------------------------------|



|-----------------------------------------------------------------|
|-----------------------------------------------------------------|
|-----------------------------------------------------------------|
|-0-------0-------0-------0-------0-------0-----------------------|
|-------------------------------------------------0-------0-------|
|-----------------------------------------------------------------|
|
|
|-2-2-2-2-2-2-2-2-2-2-2-2-2-2-2-2-2-2-2-2-2-2-2-2-0-0-0-0-0-0-0-0-|
|-----------------------------------------------------------------|
|-----------------------------------------------------------------|
|-----------------------------------------------------------------|
|-----------------------------------------------------------------|
|-----------------------------------------------------------------|



|-----------------------------------------------------------------|
|-----------------------------------------------------------------|
|-----------------------------------------------------------------|
|-----------------------------------------------------------------|
|-2-------2-------2-------2-------2-------2-------0-------0-------|
|-----------------------------------------------------------------|
|
|
|-2-2-2-2-2-2-2-2-2-2-2-2-2-2-2-2-2-2-2-2-2-2-2-2-0-0-0-0-0-0-0-0-|
|-----------------------------------------------------------------|
|-----------------------------------------------------------------|
|-----------------------------------------------------------------|
|-----------------------------------------------------------------|
|-----------------------------------------------------------------|



|-------------------------------------------------------------------|
|-------------------------------------------------------------------|
|-------------------------------------------------------------------|
|-------------------------------------------------------------------|
|-2-------2-------2-------2-(hold note)-----------------------------|
|-------------------------------------------------------------------|
|
|
|-2-2-2-2-2-2-2-2-2-2-2-2-2-2-2-2--2--2-2-2-2-2-2-2-0-0-0-0-0-0-0-0-|
|-------------------------------------------------------------------|
|-------------------------------------------------------------------|
|-------------------------------------------------------------------|
|-------------------------------------------------------------------|
|-------------------------------------------------------------------|



||------------------------------------------------------------------|
||o-----------------------------------------------------------------|
||------------------------------------------------------------------|
||------------------------------------------------------------------|
||o-4---2---4---------------4---2---4---2---4-------4---2---4-------|
||--2---0---2---------------2---0---2---0---2-------2---0---2-------|
|
|
||--2-2-2-2-2-2-2-2-2-2-2-2-2-2-2-2-2-2-2-2-2-2-2-2-0-0-0-0-0-0-0-0-|
||o-----------------------------------------------------------------|
||------------------------------------------------------------------|
||------------------------------------------------------------------|
||o-----------------------------------------------------------------|
||------------------------------------------------------------------|



|------------------------------------------------------------------|
|------------------------------------------------------------------|
|------------------------------------------------------------------|
|------------------------------------------------------------------|
|-4---2---4---------------4---2---4---2---4-------4---5------------|
|-2---0---2---------------2---0---2---0---2-------2---3------------|
|
|
|-2-2-2-2-2-2-2-2-2-2-2-2-2-2-2-2-2-2-2-2-2-2-2-2-0-0-0--0-0-0-0-0-|
|------------------------------------------------------------------|
|------------------------------------------------------------------|
|------------------------------------------------------------------|
|------------------------------------------------------------------|
|------------------------------------------------------------------|



|-----------------------------------------------------------------|
|-----------------------------------------------------------------|
|-----------------------------------------------------------------|
|-----------------------------------------------------------------|
|-4---2---4---------------4---2---4---2---4-------4---2---4-------|
|-2---0---2---------------2---0---2---0---2-------2---0---2-------|
|
|
|
|-2-2-2-2-2-2-2-2-2-2-2-2-2-2-2-2-2-2-2-2-2-2-2-2-0-0-0-0-0-0-0-0-|
|-----------------------------------------------------------------|
|-----------------------------------------------------------------|
|-----------------------------------------------------------------|
|-----------------------------------------------------------------|
|-----------------------------------------------------------------|



|--------------------------------------------------------------------||
|-------------------------------------------------------------------o||
|--------------------------------------------------------------------||
|--------------------------------------------------------------------||
|-4---2---4---------------4---2-------5----------------4------------o||
|-2---0---2---------------2---0---0---3------------0---2-------------||
|
|
|
|-2-2-2-2-2-2-2-2-2-2-2-2-2-2-2-2-2-2-2--2-2-2-2-2-0-0-0--0-0-0-0-0--||
|-------------------------------------------------------------------o||
|--------------------------------------------------------------------||
|--------------------------------------------------------------------||
|-------------------------------------------------------------------o||
|--------------------------------------------------------------------||


[ Tab from: http://www.guitartabs.cc/tabs/g/guano_apes/lords_of_the_boards_tab_ver_2.html ]
 Both Guitars:           3x 		                   3x
|----------||------------||-----------------||-------------------||
|----------||o----------o||-----------------||o-----------------o||
|----------||------------||---------4-------||----------4--------||
|----------||------------||-----8-------8---||------8-------8----||
|----------||o----------o||---6---6---6---6-||o---6---6---6---6-o||
|-4--------||------------||-4---------------||--4----------------||


  		                3x
|-----------------||-------------------||
|-----------------||o-----------------o||
|---------4-------||----------4--------||
|-----8-------8---||------8-------8----||
|---6---6---6---6-||o---6---6---6---6-o||
|-4---------------||--4----------------||


 Guitar 1:
|-----------------------------------------------------------------|
|-----------------------------------------------------------------|
|-----------------------------------------------------------------|
|-----------------------------------------------------------------|
|-2-------2-------2-------2-------2-------2-------0-------0-------|
|-----------------------------------------------------------------|
|
|
|Guitar 2:
|-2-2-2-2-2-2-2-2-2-2-2-2-2-2-2-2-2-2-2-2-2-2-2-2-0-0-0-0-0-0-0-0-|
|-----------------------------------------------------------------|
|-----------------------------------------------------------------|
|-----------------------------------------------------------------|
|-----------------------------------------------------------------|
|-----------------------------------------------------------------|
		(3x)

||-------------------------------------------------------------------||
||o-----------------------------------------------------------------o||
||-------------------------------------------------------------------||
||-------------------------------------------------------------------||
||o-2-------2-------2-------2-------2-------2-------0-------0-------o||
||-------------------------------------------------------------------||
		(3x)

||--2-2-2-2-2-2-2-2-2-2-2-2-2-2-2-2-2-2-2-2-2-2-2-2-0-0-0-0-0-0-0-0--||
||o-----------------------------------------------------------------o||
||-------------------------------------------------------------------||
||-------------------------------------------------------------------||
||o-----------------------------------------------------------------o||
||-------------------------------------------------------------------||



|-----------------------------------------------------------------|
|-----------------------------------------------------------------|
|-----------------------------------------------------------------|
|-0-------0-------0-------0-------0-------0-----------------------|
|-------------------------------------------------0-------0-------|
|-----------------------------------------------------------------|
|
|
|-2-2-2-2-2-2-2-2-2-2-2-2-2-2-2-2-2-2-2-2-2-2-2-2-0-0-0-0-0-0-0-0-|
|-----------------------------------------------------------------|
|-----------------------------------------------------------------|
|-----------------------------------------------------------------|
|-----------------------------------------------------------------|
|-----------------------------------------------------------------|



|-----------------------------------------------------------------|
|-----------------------------------------------------------------|
|-----------------------------------------------------------------|
|-0-------0-------0-------0-------0-------0-----------------------|
|-------------------------------------------------0-------0-------|
|-----------------------------------------------------------------|
|
|
|-2-2-2-2-2-2-2-2-2-2-2-2-2-2-2-2-2-2-2-2-2-2-2-2-0-0-0-0-0-0-0-0-|
|-----------------------------------------------------------------|
|-----------------------------------------------------------------|
|-----------------------------------------------------------------|
|-----------------------------------------------------------------|
|-----------------------------------------------------------------|



|-----------------------------------------------------------------|
|-----------------------------------------------------------------|
|-----------------------------------------------------------------|
|-----------------------------------------------------------------|
|-2-------2-------2-------2-------2-------2-------0-------0-------|
|-----------------------------------------------------------------|
|
|
|-2-2-2-2-2-2-2-2-2-2-2-2-2-2-2-2-2-2-2-2-2-2-2-2-0-0-0-0-0-0-0-0-|
|-----------------------------------------------------------------|
|-----------------------------------------------------------------|
|-----------------------------------------------------------------|
|-----------------------------------------------------------------|
|-----------------------------------------------------------------|




|-------------------------------------------|
|-------------------------------------------|
|-------------------------------------------|
|-------------------------------------------|
|-2-------2-------2-------2---------5----4--|
|---------------------------------0-3--0-2--|
|
|
|-2-2-2-2-2-2-2-2-2-2-2-2-2-2-2-2-----------|
|-------------------------------------------|
|-------------------------------------------|
|-------------------------------------------|
|-------------------------------------------|
|-------------------------------------------|




||------------------------------------------------------------------|
||o-----------------------------------------------------------------|
||------------------------------------------------------------------|
||------------------------------------------------------------------|
||o-4---2---4---------------4---2---4---2---4-------4---2---4-------|
||--2---0---2---------------2---0---2---0---2-------2---0---2-------|
|
|
||--2-2-2-2-2-2-2-2-2-2-2-2-2-2-2-2-2-2-2-2-2-2-2-2-0-0-0-0-0-0-0-0-|
||o-----------------------------------------------------------------|
||------------------------------------------------------------------|
||------------------------------------------------------------------|
||o-----------------------------------------------------------------|
||------------------------------------------------------------------|



|------------------------------------------------------------------|
|------------------------------------------------------------------|
|------------------------------------------------------------------|
|------------------------------------------------------------------|
|-4---2---4---------------4---2---4---2---4-------4---5------------|
|-2---0---2---------------2---0---2---0---2-------2---3------------|
|
|
|
|-2-2-2-2-2-2-2-2-2-2-2-2-2-2-2-2-2-2-2-2-2-2-2-2-0-0-0--0-0-0-0-0-|
|------------------------------------------------------------------|
|------------------------------------------------------------------|
|------------------------------------------------------------------|
|------------------------------------------------------------------|
|------------------------------------------------------------------|




|-----------------------------------------------------------------|
|-----------------------------------------------------------------|
|-----------------------------------------------------------------|
|-----------------------------------------------------------------|
|-4---2---4---------------4---2---4---2---4-------4---2---4-------|
|-2---0---2---------------2---0---2---0---2-------2---0---2-------|
|
|
|
|-2-2-2-2-2-2-2-2-2-2-2-2-2-2-2-2-2-2-2-2-2-2-2-2-0-0-0-0-0-0-0-0-|
|-----------------------------------------------------------------|
|-----------------------------------------------------------------|
|-----------------------------------------------------------------|
|-----------------------------------------------------------------|
|-----------------------------------------------------------------|



|--------------------------------------------------------------------||
|-------------------------------------------------------------------o||
|--------------------------------------------------------------------||
|--------------------------------------------------------------------||
|-4---2---4---------------4---2-------5----------------4------------o||
|-2---0---2---------------2---0---0---3------------0---2-------------||
|
|
|
|-2-2-2-2-2-2-2-2-2-2-2-2-2-2-2-2-2-2-2--2-2-2-2-2-0-0-0--0-0-0-0-0--||
|-------------------------------------------------------------------o||
|--------------------------------------------------------------------||
|--------------------------------------------------------------------||
|-------------------------------------------------------------------o||
|--------------------------------------------------------------------||


Both Guitars:
      P.M........................................6x     P.M..
|----------------------||------------------------||--------------------|
|----------------------||o----------------------o||--------------------|
|----------------------||------------------------||--------------------|
|----------------------||------------------------||--------------------|
|----------------------||o----------------------o||------------5----4--|
|------0-0-0-0-0-0-0-0-||-------0-0-0-0-0-0-0-0--||------0-0-0-3--0-2--|




||----------------------------------|------------------------------|
||o---------------------------------|------------------------------|
||----------------------------------|------------------------------|
||----------------------------------|------------------------------|
||o-4-2-4-------4-2-4-2-4---4-2-4---|-4-2-4-------4-2-4-2-4---4-5--|
||--2-0-2-------2-0-2-0-2---2-0-2---|-2-0-2-------2-0-2-0-2---2-3--|




|---------------------------------|----------------------------||
|---------------------------------|---------------------------o||
|---------------------------------|----------------------------||
|---------------------------------|----------------------------||
|-4-2-4-------4-2-4-2-4---4-2-4---|-4-2-4-------4-2---5----4--o||
|-2-0-2-------2-0-2-0-2---2-0-2---|-2-0-2-------2-0-0-3--0-2---||



  Guitar 2:
||--2-2-2-2-2-2-2-2-2-2-2-2-2-2-2-2-2-2-2-2-2-2-2-2-0-0-0-0-0-0-0-0--||
||o-----------------------------------------------------------------o||
||-------------------------------------------------------------------||
||-------------------------------------------------------------------||
||o-----------------------------------------------------------------o||
||-------------------------------------------------------------------||



|-2-2-2-2-2-2-2-2-2-2-2-2-2-2-2-2-2-2-2-2-2-2-2-2-0-0-0-0-0-0-0-0-|
|-----------------------------------------------------------------|
|-----------------------------------------------------------------|
|-----------------------------------------------------------------|
|-----------------------------------------------------------------|
|-----------------------------------------------------------------|



|-2-2-2-2-2-2-2-2-2-2-2-2-2-2-2-2-2-2-2-2-2-2-2-2-0-0-0-0-0-0-0-0-|
|-----------------------------------------------------------------|
|-----------------------------------------------------------------|
|-----------------------------------------------------------------|
|-----------------------------------------------------------------|
|-----------------------------------------------------------------|



|-2-2-2-2-2-2-2-2-2-2-2-2-2-2-2-2-2-2-2-2-2-2-2-2-0-0-0-0-0-0-0-0-|
|-----------------------------------------------------------------|
|-----------------------------------------------------------------|
|-----------------------------------------------------------------|
|-----------------------------------------------------------------|
|-----------------------------------------------------------------|



|-2-2-2-2-2-2-2-2-2-2-2-2-2-2-2-2-2-2-2-2-2-2-2-2-0-0-0-0-0-0-0-0-||
|-----------------------------------------------------------------||
|-----------------------------------------------------------------||
|-----------------------------------------------------------------||
|-----------------------------------------------------------------||
|-----------------------------------------------------------------||

End.
Comments