Guano Apes - Living In A Lie Chords & Tabs

 

Living In A Lie Chords & Tabs

Guano Apes Chords & Tabs

Version: 1 Type: Bass Tab 0 ratings
1 star 2 stars 3 stars 4 stars 5 stars
comments

Living In A Lie Bass Tab

   
Band - Guano Apes		
Song - Living in a Lie

Tuning: 5-String Standart (B E A D G)
Key:
/ - slide up
\ - slide down
h - hammer on

Intro:
G|--------|--------|
D|--------|--------|
A|--REST--|----/6\-|
E|--------|--------|
B|--------|--------|


Verse 1:
G|--------|--------|--------|--------|--------|--------|--------|--------|
D|--------|--------|--------|--------|--------|--------|--------|--------|
A|--------|--------|--------|--------|--------|--------|--------|--------|
E|----6h7-|----6h7-|6--7----|6--7----|----6h7-|----6h7-|6--7----|6--7---6|
B|4h5-----|4h5-----|--------|--------|4h5-----|4h5-----|--------|------4-|

G|--------|--------|--------|-----------|--------|--------|--------|--------|
D|--------|--------|--------|-----9-86--|--------|--------|--------|--------|
A|--------|--------|--------|---------9-|--------|--------|--------|--------|
E|----6h7-|----6h7-|6--7----|6--7-------|----6h7-|----6h7-|6--7----|6--7----|
B|4h5-----|4h5-----|--------|-----------|4h5-----|4h5-----|--------|--------|


Prechorus 1:
G|--------|--------|--------|--------|--------|---------|--------|--------|
D|--------|--------|--------|--------|--------|---------|--------|--------|
A|6-------|--------|4-------|6--(6)--|/6------|---------|4-----4-|6-------|
E|--------|--------|--------|--------|--------|---------|--------|--------|
B|--------|6-----0-|--------|----4---|--------|6------0-|--------|--------|


Verse 2:
G|--------|--------|--------|--------|--------|--------|--------|--------|
D|--------|--------|--------|--------|--------|--------|--------|--------|
A|--------|--------|--------|--------|--------|--------|--------|--------|
E|----6h7-|----6h7-|6--7----|6--7----|----6h7-|----6h7-|6--7----|6--7---6|
B|4h5-----|4h5-----|--------|--------|4h5-----|4h5-----|--------|------4-|

G|--------|--------|--------|--------|
D|--------|--------|--------|--------|
A|--------|--------|--------|--------|
E|----6h7-|----6h7-|6--7----|6--7----|
B|4h5-----|4h5-----|--------|--------|

[ Tab from: http://www.guitartabs.cc/tabs/g/guano_apes/living_in_a_lie_btab.html ]
Prechorus 2:
G|--------|--------|--------|--------|--------|--------|--------|--------|
D|--------|--------|--------|--------|--------|--------|--------|--------|
A|6-------|--------|4-------|6\------|6-------|--------|4-------|66666666|
E|--------|--------|--------|--------|--------|--------|--------|--------|
B|--------|6-----0-|------2-|---4-4--|--------|6-----0-|--------|--------|


Chorus 1:
G|--------|--------|--------|--------|--------|--------|--------|--------|
D|--------|--------|--------|--------|--------|--------|--------|--------|
A|2---1---|1---2---|1---2---|1---2---|2---1---|1---2---|1---2---|--------|
E|-------4|--------|-------4|--------|-------4|--------|--------|4-------|
B|--------|--------|--------|--------|--------|--------|--------|--------|


Verse 3:
G|--------|--------|--------|---------|--------|--------|--------|--------|
D|--------|--------|--------|---------|--------|--------|--------|--------|
A|--------|--------|--------|---------|--------|--------|--------|-------4|
E|----6h7-|----6h7-|6--7----|6--7---7\|----6h7-|----6h7-|6--7----|6--7----|
B|4h5-----|4h5-----|--------|------5--|4h5-----|4h5-----|--------|--------|


Prechorus 3:
G|--------|--------|--------|--------|--------|---------|--------|--------|
D|--------|--------|--------|--------|--------|---------|--------|--------|
A|6-------|--------|4-----44|6\------|66666666|---------|44444444|66666666|
E|--------|--------|--------|--------|--------|---------|--------|--------|
B|--------|6-----0-|--------|---4-4--|--------|666666666|--------|--------|


Chorus 2:
G|--------|--------|--------|--------|--------|--------|--------|-------4-43-|
D|--------|--------|--------|--------|--------|--------|--------|------4----4|
A|2---1---|1---2---|1---2---|1---2---|2---1---|1---2---|1---2---|1---2-------|
E|--------|-------4|--------|--------|-------4|-------4|--------|------------|
B|--------|--------|--------|--------|--------|--------|--------|------------|

G|--------|--------|--------|--------|--------|--------|--------|--------| 
D|--------|--------|--------|--------|--------|--------|--------|--------|    
A|2221111-|1112222-|1112222-|11122222|2221111-|1112222-|1112222-|11122222|    
E|-------4|-------4|-------4|--------|-------4|-------4|-------4|--------|    
B|--------|--------|--------|--------|--------|--------|--------|--------|   

G|--------|--------|--------|----/6-6664--|--------|--------|------466-|--------|
D|--------|--------|--------|-----------4\|--------|--------|-----4----|--------|
A|2221111-|1112222-|1112222-|1112---------|2221111-|1112222-|11122-----|--------|
E|-------4|-------4|-------4|-------------|-------4|-------4|----------|4-------|
B|--------|--------|--------|-------------|--------|--------|----------|--------|
Comments