Guano Apes - Innocent Greed Chords & Tabs

 

Innocent Greed Chords & Tabs

Guano Apes Chords & Tabs

Version: 1 Type: Bass Tab 0 ratings
1 star 2 stars 3 stars 4 stars 5 stars
comments

Innocent Greed Bass Tab

   
Band - Guano Apes		
Song - Innocent Greed

Tuning: 5-String Standart (B E A D G)
~ - let ring

Intro/Verse:
G|---------------|
D|o-------------o|
A|---------------|
E|o-------------o|
B|--4-24-2444-2--|
[ Tab from: http://www.guitartabs.cc/tabs/g/guano_apes/innocent_greed_btab.html ]
Chorus:
G|----------|-----------|-----------|-------------| 
D|----------|-----------|-----------|-------------|
A|----------|-----------|-----------|-------------| x2
E|----------|-----------|7-77776466-|6-4-2--------|
B|4-44446466|4-44446466-|-----------|------6-4-2--|

Interlude:
G|----------|----------|----------|
D|----------|----------|----------|
A|----------|----------|----------| x3
E|----------|----------|4~--------|
B|4~--------|4~--------|----------|

Outro:
G|--------------------------|
D|---8~-6~-4~---------------|
A|------------8~-6~-4~-6~---|
E|7~------------------------|
B|-----------------------4~-|

End.
Comments