Guano Apes - Gogan Chords & Tabs

 

Gogan Chords & Tabs

Guano Apes Chords & Tabs

Version: 1 Type: Tab 0 ratings
1 star 2 stars 3 stars 4 stars 5 stars
comments

Gogan Tab

   
Band - Guano Apes		
Song - Gogan

Tuning: 5-String Standart (B E A D G)

/ - slide up
\ - slide down
h - hammer on


Intro:
G|----------|    |----------/17-|
D|--4---3---|    |--4---3/15----|
A|4---4---3-| x3 |4---4---------|
E|----------|    |--------------|
B|----------|    |--------------|

G|----------|    |-------------|
D|--4---3---|    |-------------|
A|4---4---3-| x3 |-------------|
E|----------|    |---2---------|
B|----------|    |-----4-3-2-1-|


Verse:
G|----------|     |------------|
D|--4---3---|     |--4---------|
A|4---4---3-| x15 |4---4-------|
E|----------|     |------------|
B|----------|     |------3-2-1-|


Chorus:
G|-----------------------| 
D|-----------------------|
A|-----------------------| x6
E|-----------------------|
B|1--1-1--1--1-0h2-2-2-2-|


Bridge:
G|----------|    |----------/17\|
D|--4---3---|    |--4---3/15----|
A|4---4---3-| x3 |4---4---------|
E|----------|    |--------------|
B|----------|    |--------------|
[ Tab from: http://www.guitartabs.cc/tabs/g/guano_apes/gogan_tab.html ]
G|----------|    |--------------|
D|--4---3---|    |--4-----------|
A|4---4---3-| x3 |4-------------|
E|----------|    |----2---------|
B|----------|    |------4-3-2-1-|


Verse:
G|----------|     |------------|
D|--4---3---|     |--4---------|
A|4---4---3-| x15 |4---4-------|
E|----------|     |------------|
B|----------|     |------3-2-1-|


Chorus:
G|-----------------------| 
D|-----------------------|
A|-----------------------| x6
E|-----------------------|
B|1--1-1--1--1-0h2-2-2-2-|

G|-----------------------|    |------|
D|-----------------------|    |------|
A|-----------------------| x4 |-REST-|
E|-----------------------|    |------|
B|4--4-4--4--4-2h5-5-5-5-|    |------|

G|-----------------------|    |------|
D|-----------------------|    |------|
A|-----------------------| x4 |------|
E|-----------------------|    |------|
B|1--1-1--1--1-0h2-2-2-2-|    |7-6-5-|

G|-----------------------| 
D|-----------------------|   
A|-----------------------| x4   
E|-----------------------|   
B|4--4-4--4--4-2h5-5-5-5-|
Comments