Guano Apes - Dodle Up Chords & Tabs

 

Dodle Up Chords & Tabs

Guano Apes Chords & Tabs

Version: 1 Type: Tab 0 ratings
1 star 2 stars 3 stars 4 stars 5 stars
comments

Dodle Up Tab

Band - Guano Apes		
Song - Dodle Up

_ - slide
* - speed with wahwah

e|--12--11---------------|
B|--12--11-12--11--9--11-|
G|--10--9--12--11--9--11-|
D|---------10--9---7--9--| x2
A|-----------------------|
E|-----------------------|

e|-----------------|
B|-11**11**11**12--|
G|-11**11**11**12--|
D|-9***9***9***10--|
A|-----------------|
E|-----------------|

e|--12--11---------------|
B|--12--11-12--11--9--11-|
G|--10--9--12--11--9--11-|
D|---------10--9---7--9--|
A|-----------------------|
E|-----------------------|

e|-----------------|
B|-----------------|
G|-----------------| 
D|-4--4--4--5------| x9
A|-4--4--4--5------|
E|-2--2--2--3------|
[ Tab from: http://www.guitartabs.cc/tabs/g/guano_apes/dodle_up_tab.html ]
e|-------------------|    |---------------------|
B|-------------------|    |---------------------|
G|-------------------| X2 |----------4-3--------|
D|-4-4-4-4-5---------|    |-4-4-4-4--4-3-5-4-2--| x2
A|-4-4-4-4-5---------|    |-4-4-4-4--2-1-5-4-2--|
E|-2-2-2-2-3---------|    |-2-2-2-2------3-2-0--|


e|------1---|--------------|--6_7-6----------|
B|-----1----|-2_3-2--------|--------7-6------|
G|---2------|-------4-3--3-|------------7-6--|
D|-3--------|----------4---|-----------------|
A|----------|--------------|-----------------|
E|----------|--------------|-----------------|

e|-----------------|
B|-----------------|
G|-----------------| 
D|-4--4--4--5------| x8
A|-4--4--4--5------|
E|-2--2--2--3------|

e|--------|------------|
B|--------|------2--3--|
G|-4_9_4--|----4---4---|
D|--------|---4--------|
A|--------|------------|
E|--------|------------|

e|-------------------|    |---------------------|
B|-------------------|    |---------------------|
G|-------------------| X2 |----------4-3--------|
D|-4-4-4-4-5---------|    |-4-4-4-4--4-3-5-4-2--| x6
A|-4-4-4-4-5---------|    |-4-4-4-4--2-1-5-4-2--|
E|-2-2-2-2-3---------|    |-2-2-2-2------3-2-0--|

End.
Comments