Guano Apes - Cuts Chords & Tabs

 

Cuts Chords & Tabs

Guano Apes Chords & Tabs

Version: 1 Type: Tab 0 ratings
1 star 2 stars 3 stars 4 stars 5 stars
comments

Cuts Tab

Band - Guano Apes		
Song - Cuts

Tuning: standard EADGBE

Key:
~   - sustain / vibrato
/ \ - slide up or down
`   - bend up or down
pm  - palm mute

Verse:
e|----------------------------------------------------------------------------|
B|----------------------------------------------------------------------------|
G|----------------------------------------------------------------------------|
D|----------------------------------------------------------8--8--8--8--8--8--|
A|----6--6--6--6--6--6--7--7--7--7--7--6--6--6--6--6--6--6--6--6--6--6--6--6--|
E|----4--4--0--4--0--0--5--5--0--5--5--0--4--4--0--4--0--0--6--6--6--6--6--6--|
       pm.....................................................................|

Prechorus:				   (just before chorus)
e|-----------------------------|	|----------------------|
B|-----------------------------|	|----------------------|
G|-----------------------------|	|----------------------|
D|----13--------9-\--7----9----|	|----------------------|
A|-----------------------------|	|-------6--6--6--6-----|
E|----11`-`-----7-\--5----7----|	|-------6--6--6--6-----|
						pm.............|
Chorus:
e|----------------------------------------|
B|----------------------------------------|
G|----8--8--8--8--8--8--9--9--9--9--9--9--|
D|----8--8--8--8--8--8--9--9--9--9--9--9--|
A|----6--6--6--6--6--6--7--7--7--7--7--7--|
E|----6--6--6--6--6--6--7--7--7--7--7--7--|
[ Tab from: http://www.guitartabs.cc/tabs/g/guano_apes/cuts_tab.html ]
e|----------------------------------------|
B|----------------------------------------|
G|----8--8--8--8--8--8--4--4--4--3--3--3--|
D|----8--8--8--8--8--8--4--4--4--4--4--4--|
A|----6--6--6--6--6--6--2--2--2--2--2--2--|
E|----6--6--6--6--6--6--2--2--2--2--2--2--|

e|--------------|
B|--------------|
G|--------------|
D|----/8~~~~----|
A|--------------|
E|----/6~~~~----|

Verse 2:
e|-------------------|
B|---------0~~-------|
G|------------3~~~---|
D|----1~~~-----------|
A|-------------------|
E|-------------------|

Bridge:
e|---------------------||---------------------|
B|---------------------||---------------------|
G|---2--2--2--4--2--2--||---3--3--3--3--4--3--|
D|---2--2--2--2--2--2--||---1--1--1--1--1--1--|
A|---0--0--0--0--0--0--||---1--1--1--1--1--1--|
E|---------------------||---------------------|

Outro:
e|-----------------------------------|
B|-----------------------------------|
G|-----------------------------------|
D|--9--9--9---9----9--9--9----9--8~--|
A|--7--7--7---7----7--7--7----7--6~--|
E|--5--5--5---5----5--5--5----5--4~--|

lyrics:

it's a tightrope; a life lives as someone else
i've found the mood; a break to another world
i'e got to tell them i was the one before
and it's not my fault i am what you adore

take my flesh i am real
what you gonna do if i let you feel

cuts i am not a maniac

the time is up; fighting against invisibles
when i step into your room i know what's on your mind
so shut your mouth; i was the one before
i cut your tongue; i am what you ignore

it is true i am healed
so what you gonna do if i let you feel my

cuts i am not a maniac

say it i know you can't follow
because i'm too fast
say it i know you can't live with it
say it i know you can't follow
because i'm too fast
say it say it again

cuts i am not a maniac
cuts i am not a maniac
say it say it again
Comments